Slayer logo

Mandatory Suicide Slayer

  • 3
  • Поделиться
  • Транспонировка
    0
  • Размер шрифта
    15
Slayer – Mandatory Suicide
Intro RIFF:
Guitar 1           x8
[e:----------------------------
B:----------------------------
G:----------------------10-9--
D:5--4--3--2--/9--8-----------
A:5--4--3--2---------7--------
E:3--2--1--0------------------]
  (pm)
Guitar 2           x8
[e:----------------------------
B:----------------------------
G:-----------/9--8------------
D:5--4--3--2--------7---------
A:5--4--3--2------------8--7--
E:3--2--1--0------------------]
  (pm)

RIFF A:
             x4
[e:-------------
B:-------------
G:-------------
D:-6---3----2--
A:-6---3----2--
E:-4---1----0--]
      (pm)

Fill 1:
                     x8
[e:-------  -------------------
B:-------  -------------------
G:-------  -------------------
D:-6--3--  -------------------
A:-6--3--  ----5-----5--4--3--
E:-4--1--  -0--3--0--3--2--1--]
              (       pm     )

RIFF B:   Verse Riffs
                      x4
[e:-------------------------------
B:-------------------------------
G:-------------------------------
D:-6--3--------------------------
A:-6--3--2-2-2-2-2-2-2-2-2-2-2-2-
E:-4--1--0-0-0-0-0-0-0-0-0-0-0-0-]
         (         pm          )

Fill 1 for Chorus ("Suicide..  Suicide.. etc..)
Riff B again, I Think! (Its been a long time since I listened to this!)

RIFF C:
                     x4          x3
[e:-------  ------------------  -----------------  -----------------
B:-------  ------------------  -----------------  -----------------
G:-------  ---------4--3-----  -----------------  -----------------
D:-6--3--  ---------------5--  --------9--8--5--  --------9--6--3--
A:-6--3--  ---2--2-----------  --2--2--9--8--5--  --2--2--9--6--3--
E:-4--1--  ---0--0-----------  --0--0--7--6--3--  --0--0--7--4--1--]
                (pm)                 (pm)                 (pm)
Repeat Riff B ?

RIFF D:  Solo Rythm

[e:------------------------------------
B:------------------------------------
G:------------------------------------
D:--2---------------------------------
A:--2--2-2-2-3-3-5-5-3-3-3-3-3-3-3-3--
E:--0--0-0-0-1-1-3-3-1-1-1-1-1-1-1-1--]
       (             pm            )

-

All the rhythm parts are here. For the 1st solo go figure it
Out for yourself and for the 2nd use your trem bar a lot.
          RiffA                END A   Fill 1
[e--------------------------------------------------------
B
G-----------9--8-----------------------------------------
D-----------------7----------------2-----------------6-3-
A-5-4-3-----7--6--0--8--7--5-4--3--2-----------------6-3-
E-3-2-1--0-----------------3-2--1--0-----------------4-1-]
Ending bit
Instead of [A-5-4--3-]  play  [A-6----3-]
   [E-3-2--1-        E-4----1-]
  RiffB   END B RiffC              END C
[e-----------------------------------------------
B-----------------------------------------------
G
D-2-5-2-5-4-3--------------------------6------3-
A-2-5-2-5-4-3--------------------------6------3-
E-0-2-0-2-1-0--0-0-0-0-0-0-0-0-0-0-0-0-4------1-]
Fill2
[e-----------------------------------------------------
B
G------9--8---------9--8---------9--8---------9--8----
D------------9------------9------------9------------9-
A
E-0-0-----------0-0---------0-0-----------0-0---------]
RiffD                  END D
                X3
[e----------------------------------
B----------------------------------
G
D------4--3------------4-----------
A------2--1--3--5------2--6-----3--
E-0-0--------1--3--0-0----4-----1--]
              /sl/
Riff E
[A-2--2-2-2-3-3-5-5-3-3-3-3-3-3-2-
E-0--0-0-0-1-1-3-3-1-1-1-1-1-1-0-]
Song Structure
8x Riff A + ending bit the last time
4x Fill 1
8x Riff B + ending bit the last time
4x Riff C
Fill 2
Riff D
4x Riff C
8x Riff B
4x Riff A
Riff E under Solo 1
Fill 2
Riff D
4x Riff C
8x Riff B
E5 chord sustained during drum fills
Riff E under Solo 2
E5 chord sustained and fade out

Чтобы оставить комментарий, войдите

После регистрации мы вернём Вас на это же место
Комментарии
face-with-monocle
Если вы немного подождёте, здесь могут появиться комментарии!

Чшшш...