Scorpions logo

Coming Home Scorpions

  • 1
  • Поделиться
  • Размер шрифта
    15
Scorpions – Coming Home
Intro
E-------------------------------------------|
B-------3-1-------3-1------3-2------3-2-----|
G------0---0-----0---0----2---2----2---2----|
D-----2-----2---2-----2--2-----2--2-----2---|
A----3---------3--------0--------0----------|
E-------------------------------------------|
Every morning...

-------3-1-0-----3-1-0---------------------|
------3-----3---3-----3----3-2------3-2----|
-----2---------2----------2---2----2---2---|
----0---------0----------2-----2--2-----2--|
------------------------0--------0---------|
-------------------------------------------|
Boy you're...

--------------------------------------------------|
--3-2-3-5-7-5-7-8-10^-8----15^-14-----------------|
------------------------------------14feedback----|
-------------------------14-------14--------------|
--------------------------------------------------|
--------------------------------------------------|

The fast part:
---------------------------------------------------|
---9-x-9-9-9---5-x-5-5-5--7-x-7-7-7--4-4-4-4-4-----|
---9-x-9-9-9---5-x-5-5-5--7-x-7-7-7--4-4-4-4-4-----|
---9-x-9-9-9---5-x-5-5-5--7-x-7-7-7--4-4-4-4-4-----|
---7-x-7-7-7---3-x-5-5-5--5-x-5-5-5--2-2-2-2-2-----|
---------------------------------------------------|

-----------------------------------|
---9-----------5----------4--------|
---9-----------5----------4--------|
---9-----------5----------4--------|
---7-----------3----------2--------|
-----------------------------------|
Year after year...

-----------------------------------|
---------------------4-------------|
-------7-------------4-------------|
---5---7-------------4-------------|
---5---5-------------2-------------|
---3-------------------------------|
   i  know.........like

------------------------------------|
------------------------------------|
----------2--------4------7---------|
--4-------2--------4------7---------|
--4-------0--------2------5---------|
--2---------------------------------|
Jump.....seat....hands...air

----------------------------------|
----------------------------------|
--4----------------------6--------|
--4----------------------6--------|
--2----------------------4--------|
----------------------------------|
       the higher we'll go

Чтобы оставить комментарий, войдите

После регистрации мы вернём Вас на это же место
Комментарии
face-with-monocle
Если вы немного подождёте, здесь могут появиться комментарии!

Чшшш...