Primus logo

Jerry Was A Racecar Driver Primus

  • 29
  • Поделиться
  • Транспонировка
    0
  • Размер шрифта
    15
Primus – Jerry Was A Racecar Driver
Primus - Jerry Was A Racecar Driver
Tabbed By: low end mad man
Email: planet_Bass@hotmail.com

Tuning: Standard ( E A D G)

The important thing in this song is the
Effects. In order to sound right I use
Two combiantions of effects. Indicated by numbers in the tab.
1- Octivider, Compressor, Bass Magnifier, Fretless Simulator
2- Octivider, Compressor, Bass Magnifier, Distortion
(If your using a fretless bass then obviously the fretless
Simultor is not necessary)

The Intro and the main riff (1)
G|------0h5h6-0h5h6-0h5h6h7------------||
D|-/7-0--------------------------------||
A|-------------------------------------||
E|-------------------------------------||
The A that this riff runs off of is taken very
Far out of phase. Don't expect to get your bass
To sound just like it. But fear not, you won't
Sound out of tune.

The pre-chorus (1)
G|-------------------------------------||
D|-------------/7----------------------||
A|-------------------------------------||
E|-5-5-5-5-x-x-------------------------||
* * * * * *
The Chorus (2)
G|-------------------------------------||
D|-------------------------------------||
A|---------------oh3h4h5---------------||
E|-5-x-x-5-x-5-5-----------------------||
* * * * * * *
G|-------------------------------------||
D|-------------------------------------||
A|---------------5-5-5-3---------------||
E|-5-x-x-5-x-5-5-----------------------||
* * * * * * *

* One very important note is that these notes
Are 'double-slapped.' This means that you slap
With your thumb and your pinky finger. So there
Are more notes played then I show. I have only
Shown enough for you to get the timeing down.
Listen to the cd and you'll get it.

Чтобы оставить комментарий, войдите

После регистрации мы вернём Вас на это же место
Комментарии
face-with-monocle
Если вы немного подождёте, здесь могут появиться комментарии!

Чшшш...