Police logo

Next To You Police

  • 0
  • Поделиться
  • Размер шрифта
    15
Police – Next To You
Riffs

-------------------------------------------

-2--2--------------------------------------
-0--0--2--2-------------------------------- ...
-------0--0--2--2--x--x--x--x--x--x--x--x--
-------------0--0--x--x--x--x--x--x--x--x--
Riff 1

-------------------------------------------
-------------------------------------------

-7--7-------------------------------------- ...
-5--5--7--7--2--2--x--x--x--x--x--x--x--x--
-------5--5--0--0--x--x--x--x--x--x--x--x--
Riff 1 - alternate way (sounds like above)

----------------------------------

-6--------7--------9-------9------
-6--------7--------9-------9------
-4--------5--------7-------7------

Riff 2

------------------------ ----------

-7--------9--------9---- -----7----
-7--------9--------9---- -----7----
-5--------7--------7---- -----5----

Riff 3a Riff 3b

-----------------------------------

-7/9--9--9--7/9--7--7--------------
-7/9--9--9--7/9--7--7--7--7--2--2--
-5/7--7--7--5/7--5--5--7--7--2--2--
-----------------------5--5--0--0--
Riff 4

Song Order

Riff 1 x 8 SOLO
Riff 2 x 2 Riff 1 x 1
Riff 1 x 4 Riff 4 x 3
Riff 2 x 2 Riff 2 x 4
Riff 3a x 1 Riff 3a x repeat and fade
Riff 3b x 1

Чтобы оставить комментарий, войдите

После регистрации мы вернём Вас на это же место
Комментарии
face-with-monocle
Если вы немного подождёте, здесь могут появиться комментарии!

Чшшш...