Paul McCartney logo

This Never Happened Before Paul McCartney

  • 22
  • Поделиться
  • Транспонировка
    0
  • Размер шрифта
    15
Paul McCartney – This Never Happened Before
Intro:
E||--------------------0-----------------|
B||-----3--1-----------------1--3-3--1---|
G||-0-2-------2----0-2-----2-----------2-|
D||--------------------------------------|
A||--------------------------------------|
E||--------------------------------------|

    Am
E||----0-0-----|---3-0-----|----------|----3-0---------|
B||---1--1--1--|--------1--|------3-1-|---------1------|
G||--2---2--2--|-2---------|---2------|-2--------------|
D||-2----2-----|-----------|----------|----------------|
A||------------|-----------|-0--------|------------0-0-|
E||------------|-----------|----------|----------------|

Am E Am E

Chorus 1:
   Am       G#m        C#m      F#m
I'm very sure this never happened to me before
Am    E     C#m          Am                  E    E
I met you and now I'm sure  this never happened before

Verse 1:
   Am       G#m        C#m      F#m
Now I see this is the way it's supposed to be
Am    E     C#m     Am                       E
I met you and now I see this is the way it should be

Chorus 2:
 Am         D          G
This is the way it should be for lovers
Am           D      G
They shouldn't go it alone
Am         D             G        E   E (6 beats)
It's not so good when you're on your own

Verse 2:
   Am       G#m       C#m       F#m
So come to me now we can be what we want to be
Am     E      C#m     Am                      E
I love you and now I see this is the way it should be
Am                      E
This is the way it should be

Chorus 2:
 Am         D          G
This is the way it should be for lovers
Am           D      G
They shouldn't go it alone
Am         D             G        E   E (6 beats)
It's not so good when you're on your own

Chorus 1:
   Am       G#m        C#m      F#m
I'm very sure this never happened to me before
Am    E     C#m          Am                  E
I met you and now I'm sure  this never happened before
Am                 E
This never happened before

Coda: Am | E | Am | E | E

Чтобы оставить комментарий, войдите

После регистрации мы вернём Вас на это же место
Комментарии
face-with-monocle
Если вы немного подождёте, здесь могут появиться комментарии!

Чшшш...