Millionaire logo

Champagne Millionaire

  • 1
  • Поделиться
  • Транспонировка
    0
  • Размер шрифта
    15
Millionaire – Champagne
-----------------------------------------------------------------------------
			     Champagne - Millionaire
-----------------------------------------------------------------------------
Tabbed by: Guy Kerckx
Email: magicguido666@hotmail.com

Tuning: E

E|--------------------------------------------------------------------------|
B|--------------------------------------------------------------------------|
G|--------------------------------------------------------------------------|
D|---5--7--5------------------------------5--7--5--8------------------------|
A|---3--5--3--7---7-7-7-7-7-7-7-7-7-7-7---3--5--3--6--8-8-8-8-8-8-8-5-5-5-5-|
E|------------5---5-5-5-5-5-5-5-5-5-5-5---------------6-6-6-6-6-6-6-3-3-3-3-|

E|--------------------------------------------------------------------------|
B|--------------------------------------------------------------------------|
G|--------------------------------------------------------------------------|
D|-------5-------7-6-5-------6------7-6-5--5--------------------------------|
A|---5h7---7p5h7---------6h8---8p6h8----------------------------------------|
E|--------------------------------------------------------------------------|

E|--------------------------------------------------------------------------|
B|--------4/8-4/10-4/10---------4/8-4/10-4/10---------4/8-4/10-4/10----4/11-|
G|--4/9-------------------4/9-------------------4/9-------------------------|
D|--------------------------------------------------------------------------|
A|--------------------------------------------------------------------------|
E|--------------------------------------------------------------------------|

E|--------------------------------------------------------------------------|
B|--------------------------------------------------------------------------|
G|--4/8---4/7---4/5---------------------------------------------------------|
D|--------------------------------------------------------------------------|
A|--------------------------------------------------------------------------|
E|--------------------------------------------------------------------------|

E|--------------------------------------------------------------------------|
B|--------------------------------------------------------------------------|
G|--------------------------------------------------------------------------|
D|--------------------------------------------------------------------------|
A|---5-7-5-7--7-7--7-7-7---7-7-7---5-7-5-7--7-7--7-7-7--7-7-7---5-7-5-7--7-7|
E|---3-5-3-5--5-5--5-5-5---5-5-5---3-5-3-5--5-5--5-5-5--5-5-5---3-5-3-5--5-5|

E|--------------------------------------------------------------------------|
B|--------------------------------------------------------------------------|
G|--------------------------------------------------------------------------|
D|--7-7-7--7-7-7--5-7-5-8--8-8-8-8-8-8-8-8-8-8-8----------------------------|
A|--5-5-5--5-5-5--3-5-3-6--6-6-6-6-6-6-6-6-6-6-6----------------------------|
E|--------------------------------------------------------------------------|

E|--------------------------------------------------------------------------|
B|--------------------------------------------------------------------------|
G|--------------------------------------------------------------------------|
D|---5-7-5-2--2-2-2--3-3-3-3-4-4-4-4----------------------------------------|
A|---3-5-3-0--0-0-0--1-1-1-1-2-2-2-2----------------------------------------
E|--------------------------------------------------------------------------|

| /  slide up
|   slide down
| h  hammer-on
| p  pull-off
| ~  vibrato
| +  harmonic
| x  Mute note
=============================================================================

Чтобы оставить комментарий, войдите

После регистрации мы вернём Вас на это же место
Комментарии
face-with-monocle
Если вы немного подождёте, здесь могут появиться комментарии!

Чшшш...