Millencolin logo

Afghan Millencolin

  • 0
  • Поделиться
  • Транспонировка
    0
  • Размер шрифта
    15
Millencolin – Afghan
Song: Afghan
Artist: Millencolin
Album: Home from Home
Tabbed by: Christian / silent_warrior_@hotmail.com

Fun song to play..so.have fun!

Tuning: Standard ( E A D G B E)

X - Mute string
PM - Palm mute
 - Slide down

Intro - Guitar 1
|-------------------------------------------------------|
|-------------------------------------------------------|
|-1-1-1--1-1-1--1-1-1--1-1-1-3-3-3--3-3-3--3-3-3--1-3-2-| x2
|-0-0-0--0-0-0--0-0-0--0-0-0-0-0-0--0-0-0--0-0-0--0-0-0-|
|-------------------------------------------------------|
|-------------------------------------------------------|

Intro - Guitar 2
|-----------------------|      |------|
|-----------------------|      |------|
|-3---3-3-5-7---7-7-5-3-| x2   |--7--| x1
|-----------------------|      |------|
|-1---1-1-3-5---5-5-3-1-|      |--5--|
|-----------------------|      |------|

|-------------------------------------------------------------------------------|
|-------------------------------------------------------------------------------|
|-1-3-2-1--1-1--1-1-1--1-1-1--1-1-1-3-3-3--3-3-3--1-3-3-2--1-1-1--1-1-1--1-1-1--| x1
|-0-0-0-0--0-0--0-0-0--0-0-0--0-0-0-0-0-0--0-0-0--0-0-0-0--0-0-0--0-0-0--0-0-0--|
|-------------------------------------------------------------------------------|
|-------------------------------------------------------------------------------|

|-------------------------------|
|-------------------------------|
|-1-1-1-3-3-3--3-3-3--1-3-3-2-1-| x1
|-0-0-0-0-0-0--0-0-0--0-0-0-0-0-|
|-------------------------------|
|-------------------------------|

Verse
|---------------------------------------------------------------------------------|
|---------------------------------------------------------------------------------|
|--------------------------7------------------------------------------------------| x1
|-8-8-8-8-8-8-8-8-8-8-8-8--7--7-7-7-7-7-7-7-7-7-7-7-7--8--8-8-8-8-8-8-8-8-8-8-8-8-|
|-8-8-8-8-8-8-8-8-8-8-8-8--5--7-7-7-7-7-7-7-7-7-7-7-7--8--8-8-8-8-8-8-8-8-8-8-8-8-|
|-6-6-6-6-6-6-6-6-6-6-6-6-----5-5-5-5-5-5-5-5-5-5-5-5--6--6-6-6-6-6-6-6-6-6-6-6-6-|
PM-----------------------     -----------------------     -----------------------

Gradually release palm mute
|----------------------------|
|----------------------------|
|-7--------------------------| x1
|-7--7-7-7-7-7-7-7-7-7-7-7-7-|
|-5--7-7-7-7-7-7-7-7-7-7-7-7-|
|----5-5-5-5-5-5-5-5-5-5-5-5-|
PM   -----------------------

Guitar 1
|-----------|    |---------|
|-----------|    |---------|
|-3-3-2-1-1-| x7 |---------| x1
|-0-0-0-0-0-|    |-x-x-x-x-|
|-----------|    |-x-x-x-x-|
|-----------|    |-x-x-x-x-|

Guitar 2
|----------------------------------------------------|
|----------------------------------------------------|
|-5--5-5--5-5--7--7-7--7-7--9--9-9--9-9--7--7-7--7-7-| x2
|-5--5-5--5-5--7--7-7--7-7--9--9-9--9-9--7--7-7--7-7-|
|-3--3-3--3-3--5--5-5--5-5--7--7-7--7-7--5--5-5--5-5-|
|----------------------------------------------------|

|----------------------------------------------------|
|----------------------------------------------------|
|-1-1-1--1-1-1--1-1-1--1-1-1-3-3-3--3-3-3--1-3-3-2-1-| x2
|-0-0-0--0-0-0--0-0-0--0-0-0-0-0-0--0-0-0--0-0-0-0-0-|
|----------------------------------------------------|
|----------------------------------------------------|

Verse
|---------------------------------------------------------------------------------|
|---------------------------------------------------------------------------------|
|--------------------------7------------------------------------------------------| x1
|-8-8-8-8-8-8-8-8-8-8-8-8--7--7-7-7-7-7-7-7-7-7-7-7-7--8--8-8-8-8-8-8-8-8-8-8-8-8-|
|-8-8-8-8-8-8-8-8-8-8-8-8--5--7-7-7-7-7-7-7-7-7-7-7-7--8--8-8-8-8-8-8-8-8-8-8-8-8-|
|-6-6-6-6-6-6-6-6-6-6-6-6-----5-5-5-5-5-5-5-5-5-5-5-5--6--6-6-6-6-6-6-6-6-6-6-6-6-|
PM-----------------------     -----------------------     -----------------------

Gradually release palm mute
|----------------------------|
|----------------------------|
|-7--------------------------| x1
|-7--7-7-7-7-7-7-7-7-7-7-7-7-|
|-5--7-7-7-7-7-7-7-7-7-7-7-7-|
|----5-5-5-5-5-5-5-5-5-5-5-5-|
PM   -----------------------

|-------------------------------------------------------|
|-------------------------------------------------------|
|-1-1-1--1-1-1--1-1-1--1-1-1-3-3-3--3-3-3--3-3-3--3-3-3-| x2
|-0-0-0--0-0-0--0-0-0--0-0-0-0-0-0--0-0-0--0-0-0--0-0-0-|
|-------------------------------------------------------|
|-------------------------------------------------------|

Guitar 1
|---------------------------------------------------------------------------------------------|
|---------------------------------------------------------------------------------------------|
|-1--1-1--1-1--2--2-2--2-2--3--3-3--3-3--2--2-2--2-2--1--1-1--1-1--2--2-2--2-2--3--3-3--3-3-2-| x1
|-0--0-0--0-0--0--0-0--0-0--0--0-0--0-0--0--0-0--0-0--0--0-0--0-0--0--0-0--0-0--0--0-0--0-0-0-|
|---------------------------------------------------------------------------------------------|
|---------------------------------------------------------------------------------------------|

Guitar 2
|----------------------------------------------------|
|----------------------------------------------------|
|-5--5-5--5-5--7--7-7--7-7--9--9-9--9-9--7--7-7--7-7-| x2
|-5--5-5--5-5--7--7-7--7-7--9--9-9--9-9--7--7-7--7-7-|
|-3--3-3--3-3--5--5-5--5-5--7--7-7--7-7--5--5-5--5-5-|
|----------------------------------------------------|

Chorus
|-----------------------------------------------------|
|-----------------------------------------------------|
|-1-1-1-1-1-1-1-1-1-1-1-1-2-2-2-2-3-3-3-3-3-3-3-3-3-3-| x3
|-0-0-0-0-0-0-0-0-0-0-0-0-0-0-0-0-0-0-0-0-0-0-0-0-0-0-|
|-----------------------------------------------------|
|-----------------------------------------------------|

|-------------------------------------------|
|-------------------------------------------|
|-5--5-5--5-5--7--7-7--7-7--9--9-9--9-9-9-9-| x1
|-5--5-5--5-5--7--7-7--7-7--9--9-9--9-9-9-9-|
|-3--3-3--3-3--5--5-5--5-5--7--7-7--7-7-7-7-|
|-------------------------------------------|

Bridge
|--------------------------------------------------|
|--------------------------------------------------|
|--------------------------7-7-7-7-7-7-7-7-7-7-7-7-| x2
|-7-7-7-7-7-7-7-7-7-7-7-7--7-7-7-7-7-7-7-7-7-7-7-7-|
|-7-7-7-7-7-7-7-7-7-7-7-7--5-5-5-5-5-5-5-5-5-5-5-5-|
|-5-5-5-5-5-5-5-5-5-5-5-5--------------------------|

Verse - Guitar 1
|-----------|
|-----------|
|-3-3-2-1-1-| x15
|-0-0-0-0-0-|
|-----------|
|-----------|

Verse - Guitar 2
|----------------------------------------------------|
|----------------------------------------------------|
|-5--5-5--5-5--7--7-7--7-7--9--9-9--9-9--7--7-7--7-7-| x4
|-5--5-5--5-5--7--7-7--7-7--9--9-9--9-9--7--7-7--7-7-|
|-3--3-3--3-3--5--5-5--5-5--7--7-7--7-7--5--5-5--5-5-|
|----------------------------------------------------|

Interlude
|---------------------------------------------------------|
|---------------------------------------------------------|
|-1-1-1--1-1-1--1-1-1--1-1-1-3-3-3--3-3-3--3-3-3--1-3-3-2-|  x3
|-0-0-0--0-0-0--0-0-0--0-0-0-0-0-0--0-0-0--0-0-0--0-0-0-0-|
|---------------------------------------------------------|
|---------------------------------------------------------|

|----------------------------------------------------|
|----------------------------------------------------|
|-3-3-3-3-3-3-3-3-3-3-3-3---3-3-3-3-3-3-3-3--3-3-2-1-| x1
|-0-0-0-0-0-0-0-0-0-0-0-0---0-0-0-0-0-0-0-0--0-0-0-0-|
|----------------------------------------------------|
|----------------------------------------------------|

Чтобы оставить комментарий, войдите

После регистрации мы вернём Вас на это же место
Комментарии
face-with-monocle
Если вы немного подождёте, здесь могут появиться комментарии!

Чшшш...

Самые популярные
Вам может понравиться