Metallica logo

My Friend Of Misery Metallica

  • 1
  • Поделиться
  • Размер шрифта
    15
Metallica – My Friend Of Misery
Intro: x2
6|------------------------------------|
5|------------------------------------|
4|------------------------------------|
3|----3--------3--------7-----5-----3-|
2|------5--------5--5-5---5-5---5-5---|
1|-0--------0-------------------------|

6|-----------------------------------|
5|-----------------------------------|
4|-----------------------------------|
3|----2-------2--------5-----3-----2-|
2|------3-------3--3-3---3-3---3-3---|
1|-0-------0-------------------------|

2nd Guitar in intro: (played distorted)
6|---------------------------------------------|
5|---------------------------------------------|
4|---------------------------------------------|
3|-3---3---3---3----------2---2---2---2-slide7-|
2|---5---0---5---0----------3---0---3----------|
1|---------------------------------------------|

Verse:
6|---------------------------------------------|
5|---------------------------------------------|
4|---------------------------------------------|
3|-3---3---3---3----------2---2---2---2-slide7-|
2|---5---0---5---0----------3---0---3----------|
1|---------------------------------------------|

Чтобы оставить комментарий, войдите

После регистрации мы вернём Вас на это же место
Комментарии
face-with-monocle
Если вы немного подождёте, здесь могут появиться комментарии!

Чшшш...