• 1
  • Поделиться
  • Размер шрифта
    15
Joe Satriani – Home
Main Theme:
E|------------------|-------------------------------|
B|------------------|-------------------------------|
G|-12/14~~--12~~----|-12/14~~16--12~~---------------|
D|------------------|-----------------12/14~~--12~~-|
A|------------------|-------------------------------|
E|------------------|-------------------------------|

E|-----------------|----------------------------------|
B|-----------------|----------------------------------|
G|-12/14~~12--12~~-|-11b(12)r11-----------------------|
D|-----------------|-------------14--12--12/14---12~~-|
A|-----------------|----------------------------------|
E|-----------------|----------------------------------|

E|-15h17~~15--15~~-|-15h17~-17b(19)--15~~--------------------|
B|-----------------|----------------------15b(17)r15p13-15~~-|
G|-----------------|-----------------------------------------|
D|-----------------|-----------------------------------------|
A|-----------------|-----------------------------------------|
E|-----------------|-----------------------------------------|

E|-15h17~~15--15~~-|-20b(22)~~r20--19--17--15~~-|
B|-----------------|----------------------------|
G|-----------------|----------------------------|
D|-----------------|----------------------------|
A|-----------------|----------------------------|
E|-----------------|----------------------------|

E|---------------------------|-20b(22)~~r20--19--17~~-|
B|---------------------------|------------------------|
G|-17b(19)~~r17--16--14~~----|------------------------|
D|---------------------------|------------------------|
A|---------------------------|------------------------|
E|---------------------------|------------------------|

E|---------------------------------|----------------------------------------------|
B|-17b(18)r17-15~~17--(18)r17-15~~-|----------------------------------------------|
G|---------------------------------|-16b(17)r16-14-14~-12~~-----------------------|
D|---------------------------------|--------------------------14--14b(15)r14-12~~-|
A|---------------------------------|----------------------------------------------|
E|---------------------------------|----------------------------------------------|

Solo:
E|-----------------------------------------------------------------------------|
B|-----------------------------------------------------------------------------|
G|---------------------------------------------------12----------12------------|
D|-x-x-x-x-x-x--12-10-12--12-10-12--12--12--12-10-12----12-10-12----12-10-12~~-|
A|-----------------------------------------------------------------------------|
E|-----------------------------------------------------------------------------|

E|------------------------------------------------------------------------|
B|------------------------------------------------------------------------|
G|----------------------------------12----------------------12------------|
D|-x-x-x-x-12--12--12-10-12--12--12----12-10-12-10-12-10-12----12-10-12~~-|
A|------------------------------------------------------------------------|
E|------------------------------------------------------------------------|

E|--------------------------------|-----------------------|
B|--------------------------------|-----------------------|
G|--------------------------------|-----------------------|
D|-10h12p109--10-9/7-/9-9~-|-4b(5)r4p0--2/4/5--4h5p4-/4p0-|
A|--------------------------------|-----------------------|
E|--------------------------------|-----------------------|

E|-------------------------|------------------------|
B|-------------------------|------------------------|
G|-------------------------|------------------------|
D|-----------5/7-7/9-9~-10-|-9h10p9-5/7-7-5~~-------|
A|-0-2/3-5/7---------------|------------------------|
E|-------------------------|------------------------|

E|------------------------------|------------------------|
B|------------------------------|------------------------|
G|-7h11--11--11--7h9p7--4/7~~---|-9/129-7/9/7~-----------|
D|------------------------------|------------------------|
A|------------------------------|------------------------|
E|------------------------------|------------------------|

E|------------------------------------------------------------------------|
B|------------------------------------------------------------------------|
G|-4br/4--4brbrb-4h5p4p0-2/4--4p2p0------0----0--2h4p2p0-----0------------|
D|---------------------------------------/4----/4------------/4----4-2-p0-|
A|------------------------------------------------------------------------|
E|------------------------------------------------------------------------|

E|--------------------------|-------------------------------------|
B|--------------------------|-------------------------------------|
G|--------------------------|-------------------------------------|
D|--------------------------|-------------------------------------|
A|-3br-2--3-2/3-3/5-5/7-5~~-|-5h7p5--5-3-3-2br--------------------|
E|--------------------------|-----------------------3/5---3/5-5~~-|

E|-15h17~~15--15~~-|-15h17--15h17~~17b(19)--15~~--------------------|
B|-----------------|-----------------------------15b(17)r15p13-15~~-|
G|-----------------|------------------------------------------------|
D|-----------------|------------------------------------------------|
A|-----------------|------------------------------------------------|
E|-----------------|------------------------------------------------|

E|-15b(17)r15--15~~-|-14b(15)r14-12---------------------------------------------|
B|------------------|----------------15--15b(17)~~--12b(13)r12-10----10---------|
G|------------------|---------------------------------------------12----12/14-~-|
D|------------------|-----------------------------------------------------------|
A|------------------|-----------------------------------------------------------|
E|------------------|-----------------------------------------------------------|

E|-15b(17)r15--14--12~-|--------------------------|
B|---------------------|--------------------------|
G|---------------------|-11b(12)r11---------------|
D|---------------------|------------12/14-12/14-~-|
A|---------------------|--------------------------|
E|---------------------|--------------------------|

E|-15b(17)r15--14--------------------------------------------------------------------------|
B|------------------15b(17)~~r15-13-12-----------------------------------------------------|
G|--------------------------------------14--12--11-9---------------------------------------|
D|----------------------------------------------------12--10--9-7--5--4--5-5/7--7/9---7~~~-|
A|-----------------------------------------------------------------------------------------|
E|-----------------------------------------------------------------------------------------|

E|-----------------|----------------------------------|
B|-----------------|----------------------------------|
G|-12/14~~12--12~~-|-12/14~~14/16--12~~---------------|
D|-----------------|--------------------12/14~~--12~~-|
A|-----------------|----------------------------------|
E|-----------------|----------------------------------|

E|-----------------|---------------------------|
B|-----------------|---------------------------|
G|-12/14--12--12~~-|-11b(12)r11----------------|
D|-----------------|-------------14--12--12/14-|
A|-----------------|---------------------------|
E|-----------------|---------------------------|

Чтобы оставить комментарий, войдите

После регистрации мы вернём Вас на это же место
Комментарии
face-with-monocle
Если вы немного подождёте, здесь могут появиться комментарии!

Чшшш...