Headstones logo

Absolutely Headstones

  • 1
  • Поделиться
  • Транспонировка
    0
  • Размер шрифта
    15
Headstones – Absolutely
Date: Tue, 07 Apr 1998 17:06:49 -0600
From: The Hansen Family
Subject: TAB: hheadstonesabsolutely.tab

Tab for Absolutely by the Headstones
From the album Picture of Health
Transcribed by Matthew Hansen

Intro and chorus riff:

E-----------------------------------------|
B-----------------------------------------|
G-----4--4-4----7-7-7---------------------|
D-----4--4-4----7-7-7----7----2-2-2-2-2-2-|
A-----2--2-2----5-5-5----7----2-2-2-2-2-2-|
E------------------------5----0-0-0-0-0-0-|

---------------------------------------------|
---------------------------------------------|
----4--4-4----7-7-7----11----9-9-9---7---9-9-|
----4--4-4----7-7-7----11----9-9-9---7---7-7-|
----2--2-2----5-5-5----9-----7-7-7---5---7-7-|
---------------------------------------------|

Verse: let this chord (B5) ring:

E-----
B
G---4-
D---4-
A---2-
E-----

Other verse riff( ..to a sea of belligerance..)

E--------------------------------------|
B--------------------------------------|
G-------4--------------9-9-9-9-9-9-9-9-|
D-----4----------7-----7-7-7-7-7-7-7-7-|
A---2----------7-------7-7-7-7-7-7-7-7-|
E------------5-------------------------|

Bridge riff

E------------------------------------------------|
B------------------------------------------------|
G------------------------------------------------|
D---77777777----22222222----44444444----77777777-|
A---77777777----22222222----44444444----77777777-|
E---55555555----00000000----22222222----55555555-|

------------------------------------------------------------------|
------------------------------------------------------------------|
------------------------------------------------------------------|
----77777777----22222222-----4444444444444444

Чтобы оставить комментарий, войдите

После регистрации мы вернём Вас на это же место
Комментарии
face-with-monocle
Если вы немного подождёте, здесь могут появиться комментарии!

Чшшш...