Godsmack logo

Moon Baby Godsmack

  • 5
  • Поделиться
  • Транспонировка
    0
  • Размер шрифта
    15
Godsmack – Moon Baby
Intro & verses 1&2

E---------------------------------------------------------
B---------------------------------------------------------
G--------------------------------------------------------
D
A-4-4-4-4---4-4-4---0-2-2---4-4-4-4---4-4-4s5-5s7-7s5-5s4-
E-4-4-4-4---4-4-4---0-2-2---4-4-4-4---4-4-4s5-5s7-7s5-5s4-

Pre-Chorus (repeat 2x)

E----------------------------------------------------------------------
B
G--------7s8---------------7s8s7------------6s7------------------------
D--------x-----------------x----------------4s5------------------------
A-0-0-0--5s6--0-0---0-0-0--5s6s5---4--4--4--4s5-----4-4---4-4-4-4----2-
E-0-0-0-------0-0---0-0-0----------4--4--4----------4-4---4-4-4-4----2-

Chorus (repeat the 1st part twice)

E-------------------------  ---------------------------------------------
B-------------------------  ---------------------------------------------
G-------------------------  ---------------------------------------------
D
A-0-0-0-0---0-0-0---0-2-2-  -4-4-4-4---4-4-4---0-2-2---4-4-4-4---4-4-4--l
E-0-0-0-0---0-0-0---0-2-2-  -4-4-4-4---4-4-4---0-2-2---4-4-4-4---4-4-4--l

Bridge

Riff 1 (repeat 3x)

E----------------------------
B----------------------------
G----------------------------
D----------------------------
A
E-0-4---0-4---0-4---0-4---4--

Riff 2

E-----------------------------
B-----------------------------
G-----------------------------
D
A-0-4---0-4---0-4---0-4p0-4b--
E-0-4---0-4---0-4---0-4p0-4b--

Riff 3 (repeat 4x)

E-------------------
B
G--11--11--11--11---
D--x---x---x---x----
A--9---9---9---9----
E-------------------

Riff 4 (repeat 4x)

E-----------------
B
G-9--9---9---9----
D-x--x---x---x----
A-7--7---7---7----
E-----------------

Riff 2 (repeat 2x)

E
B--------5--5--5--5--5--5--4--
G--------4--4--4--4--4--4--4--
D-2-----2--2--2--2--2--2--2---
A-2-----2--2--2--2--2--2--2---
E-2-----2--2--2--2--2--2--2---

Riff 1 (repeat 3x)

Riff 2

Riff 3 (repeat 4x)

Riff 4 (repeat 4x)

Riff 3 (repeat 4x)

Riff 4 (repeat 4x)

Riff 3 (repeat 4x)

Riff 4 (repeat 4x)

Riff 2

Чтобы оставить комментарий, войдите

После регистрации мы вернём Вас на это же место
Комментарии
face-with-monocle
Если вы немного подождёте, здесь могут появиться комментарии!

Чшшш...