Funeral For A Friend logo

She Drove Me To Daytime Television Funeral For A Friend

  • 1
  • Поделиться
  • Транспонировка
    0
  • Размер шрифта
    15
Funeral For A Friend – She Drove Me To Daytime Television
Title: She Drove Me To Daytime Television
Artist: Funeral For A Friend
Album: Casually Dressed and Deep in Conversation
Submitted By: nussnug

Instrument: 4 String Bass

Tabbed by: Jonny Adlard (nussnug@hotmail.com)

Tuning: 1/2 Step Down + Dropped D (C# G# C# F#)

Intro/Verse Part 1
Gb|--------------------------------------------------||
Db|--------------------------------------------------||
Ab|--------------55/777-------------55/777-----------||
Db|--5555--5555---------5555--5555-------------------||

Intro/Verse Part 2
Gb|--------------------------------------------------||
Db|--------------------------------------------------||
Ab|--------------55/777--------------55/777----------||
Db|--0000--0000----------0000--0000------------------||

Intro/Verse Part 3
Gb|--------------------------------------------------||
Db|--------------------------------------------------||
Ab|--------------------------------------------------||
Db|--9-9999-55----9-9999-5555------------------------||

Pre Chorus
Gb|--------------------------------------------------||
Db|--------------------------------------------------||
Ab|--------------------------------------------------||
Db|--555-----5555-----55--999-----9999---------------||

Chorus
Gb|--------------------------------------------------||
Db|--------------------------------------------------||
Ab|--------------------------------------------------||
Db|--555555555555555-7777-555555555555555-7777-------||

Verse 2 Part 1
Gb|--------------------------------------------------||
Db|--------------------------------------------------||
Ab|--9999--9999--55/777--------------55/777----------||
Db|----------------------5555--5555------------------||

Interlude Part 1
Gb|--------------------------------------------------||
Db|--------------------------------------------------||
Ab|--------------------------------------------------||
Db|--5~-------555555555555555555555555555------------||

Interlude Part 2
Gb|----------------------------------------------------------------||
Db|----------------------------------------------------------------||
Ab|----------------------------------------------------------------||
Db|--540000-999/5--540000-999/5--540000-999/5--540000-999/5--------||

Outro
Gb|--------------------------------------------------||
Db|--------------------------------------------------||
Ab|--------------------------------------------------||
Db|--5400~-5400~-5400~-5400~-5400~-5400~-5400~-5400--||

Order!
Intro/Verse Part 1
Intro/Verse Part 2
Intro/Verse Part 1
Intro/Verse Part 3
Pre Chorus x4
Chorus x2
Verse 2 Part 1
Intro/Verse Part 2
Intro/Verse Part 1
Intro/Verse Part 3
Pre Chorus x4
Chorus x2
Interlude Part 1
Interlude Part 2
Outro

Чтобы оставить комментарий, войдите

После регистрации мы вернём Вас на это же место
Комментарии
face-with-monocle
Если вы немного подождёте, здесь могут появиться комментарии!

Чшшш...