• 0
  • Поделиться
  • Размер шрифта
    15
Five Iron Frenzy – Oh Canada
Five Iron Frenzy
Oh Canada
Our Newest Album Ever!
Five Minute Walk/ Sara Bellum Records
All rights reserved

Intro/ Verses

G|------------------
D|---5--------------
A|-----55-0h2/3-7-55-
E|-3----------------

Chorus:

G|----------------
D|----------------
A|----22-00-3-2-00-
E|-33-------------

Bridge:    I think you hit the note the first time then palm mute it.

G|---------------------------------
D|---------------------------------
A|----2222-0000-----0000-2222-0-2-0-
E|-33----------333-----------------
  Please..   ..here.

G|----------------------------------
D|----------------------------------
A-3333-2222-0000--------0000-2222-33-3
E|--------------3333-----------------
  Did we say....deer

Thats all of it. Sometimes the Chorus is the Intro. Listen to cd to find out when.

Send corrections,comments, requests to ybbob182@hotmail.com

Чтобы оставить комментарий, войдите

После регистрации мы вернём Вас на это же место
Комментарии
face-with-monocle
Если вы немного подождёте, здесь могут появиться комментарии!

Чшшш...