Eraserheads logo

Huwag Kang Matakot Eraserheads

  • 9
  • Поделиться
  • Транспонировка
    0
  • Размер шрифта
    15
Eraserheads – Huwag Kang Matakot
Intro:
E|------------------------------------|
B|-11----8-8----10----8-8-----11-11---|
G|--8----8-8-----8----8-8------8--8---|
D|------------------------------------|
A|------------------------------------|
E|------------------------------------|

II  G Bm A D
E|--------7-------|---------7--------|------5--------|--2----2h3-2----|
B|-----8-----8----|-------7-----7----|----------5--0-|-----3-------3--|
G|-7------------7-|---7------------7-|-5-5-----------|-2--------------|
D|----------------|-9----------------|-7-7-----------|----------------|
A|----------------|------------------|---------------|----------------|
E|----------------|------------------|---------------|----------------|
Buwag kang matakot 'di mo ba alam nandito

G Bm   A  D
E|--------7-------|--------7--------|-----5--------|-2----2h3-2-------|
B|-----8-----8----|------7-----7----|---------5--0-|----3-------3-----|
G|-7------------7-|--7------------7-|5-5-----------|2-------------2-0-|
D|----------------|9----------------|7-7-----------|------------------|
A|----------------|-----------------|--------------|------------------|
E|----------------|-----------------|--------------|------------------|
Lang ako Sa iyong tabi 'di kita pababa- yaan kailan-

Refrain 1
E|----------------------------|
B|----------------------------|
G|-7-7~~----------------------|
D|-------5/8--7--5~~-5--3-----|
A|----------------------------|
E|----------------------------|
Man.. at kung ikaw ay mahulog sa bangin. . .

C Cm   G  G7
E|----------------------------|
B|----------------------------|
G|-7-7~~----------------------|
D|-------5/8--7--5--3---------|
A|----------------------------|
E|----------------------------|
Ay sasaluhin ki-

G
E|----------------------2---------------------------------------------|
B|----------------------2---------------------------------------------|
G|----------------------0---------------------------------------------|
D|-0---0------------0---0---------------------------------------------|
A|-------3--3-2-0-2-----2---------------------------------------------|
E|----------------------3---------------------------------------------|
Ta. . .

Chorus 1:
        G        Bm
Buwag kang matakot na matulog mag-isa
  Am
Kasama mo naman. . .

D (ely) (marcus)
E|-0---2-2---0---2-2---0-2-------|------------------------------------|
B|-0---3-3---0---3-3---0-3-------|------------------------------------|
G|-0---2-2---0---2-2---0-2-------|------------------------------------|
D|-------------------------------|------------------------------------|
A|-------------------------------|------------------------------------|
E|-------------------------------|----3---5-5---3---5-5---3-5---------|
Ako! (Ako!)

        G      Bm
Buwag kang matakot na umibig at lumuha
  Am
Kasama mo naman. . .

D (ely) (marcus)
E|-0---2-2---0---2-2---0-2-------|------------------------------------|
B|-0---3-3---0---3-3---0-3-------|------------------------------------|
G|-0---2-2---0---2-2---0-2-------|------------------------------------|
D|-------------------------------|------------------------------------|
A|-------------------------------|------------------------------------|
E|-------------------------------|----3---5-5---3---5-5---3-5---------|
Ako! (Ako!)

G Bm   Am
E|--------------------------------------------------------------------|
B|------15B-----------------------------------------------------------|
G|-11---------10---10-10-10-8-----------------------------------------|
D|--------------------------------------------------------------------|
A|--------------------------------------------------------------------|
E|--------------------------------------------------------------------|
'wag kang matakot ah ah ah ah. . . (intro lead)

II  (do chords/tabs of I)
Huwag kang matakot
Dahil ang buhay mo'y walang
Katapusan. . . makapangyarihan ang pag-ibig
Na hawak mo sa iyong kamay

Refrain 2 (do chords/ tabs of refrain 2)
Ikaw ang Diyos at hari ng iyong mundo
Matakot sila sa'yo

Chorus 2 (do chords/tabs of Chorus 1, first two lines, 4x, last lines, 1x)
Buwag kang matakot na matulog mag-isa
Kasama mo naman ako
Buwag kang matakot na umibig at lumuha
Kasama mo naman ako
Buwag kang matakot na magmukhang tanga
Kasama mo naman ako
Buwag kang matakot sa hindi mo pa makita
Kasama mo naman ako
Buwag kang matakot. . . ah ah ah ah

Ad lib
(break)
E|-------------------------   -----------|
B|-11----8-8----10----8-8--   ---11-11---|
G|--8----8-8-----8----8-8--6x ----8--8---|
D|-------------------------   -----------|
A|-------------------------   -----------|
E|-------------------------   -----------|

(repeat I, two frets higher)

Coda
A           C#m
Buwag kang matakot (huwag kang matakot)
      Bm
'di kita pababa-
E
E|------------------------------------|
B|------------------------------------|
G|------------------------------------|
D|------------------------------------|
A|------------------------------------|
E|----5---7-7---5---7-7---5-7---------|
Yaan kailan . . .
A
Man . . .

Чтобы оставить комментарий, войдите

После регистрации мы вернём Вас на это же место
Комментарии
face-with-monocle
Если вы немного подождёте, здесь могут появиться комментарии!

Чшшш...