Electric 6 logo

Danger Danger High Voltage Electric 6

  • 6
  • Поделиться
  • Размер шрифта
    15
Electric 6 – Danger Danger High Voltage
Electric6.com chords are

B,  d,  e,  a,  g(sharp)a   Power chords
MAIN RIFF            INTRO RIFF          2ND CHORUS RIFF
E-------------------          ----------------    ---------------
B-------------------          ----------------    --------10-----
G---7h9p7-----------repeat    --9h10p9--7---7-    --7--9---------
D--------9----------          ------------9---    ---------------
A-------------------          ----------------    ---------------
E-------------------          ----------------    ---------------

SOLO

E------------------------------------------
B-------------------18-18-18---------------  play around with this
G--16-19-16-19-16-19--------16-19-16-------  its sketchy
D------------------------------------------
A------------------------------------------
E------------------------------------------

Чтобы оставить комментарий, войдите

После регистрации мы вернём Вас на это же место
Комментарии
face-with-monocle
Если вы немного подождёте, здесь могут появиться комментарии!

Чшшш...