• 0
  • Поделиться
  • Транспонировка
    0
  • Размер шрифта
    15
Dashboard Confessional – Jamie
After reading the rest of the tabs I got fed up with all the half tuning so
I made one up in standard. You can use a capo on 1st fret if you want.

Mli034369@hotmail.com

Standard Tuning

                         Jamie
           (Dashboard Confessional cover)
                       By Weezer
Solo:
E--2-5-3-2-1-1-0-1-0-1-1-0-1-0-1--------------------------------
B--------------------------------3-5-3--------------------------
G---------------------------------------------------------------
D---------------------------------------------------------------
A---------------------------------------------------------------
E
Repeat 2 times

Intro:/ Figure 1
E--0000---0000---------------------------------------------------
B--0000---0000---------------------------------------------------
G--0000---7777---------------------------------------------------
D--5555---7777---------------------------------------------------
A--5555---5555---------------------------------------------------
E--3333---0000---------------------------------------------------
Figure 1 - 12 times During:
Jamie, whatchu doin now, whatchu doin now
                              girl
Please please tell me cause I need to know I
                              need to know now

Figure 2
E--0000---0000---0000---00-00-00-00-------------------------------
B--0000---0000---0000---00-00-00-00-------------------------------
G--0000---7777---0000---00-00-00-00-------------------------------
D--5555---7777---9999---10-10-10-10-------------------------------
A--5555---5555---9999---10-10-10-10-------------------------------
E--3333---0000---7777---08-08-08-08-------------------------------
Figure 2 - 2 times
When I was down, ya came to me and promised
                              you'd always be
By my side now you're gone and I’m waiting
                              Patiently

Figure 3
E--0000---0000---0000---0000---000---0---00-00-00---0---0-------------
B--0000---0000---0000---0000---000---0---00-00-00---0---0-------------
G--0000---7777---0000---7777---999---0---00-00-00---0---0-------------
D--5555---7777---5555---7777---999---9---10-10-10---7---5-------------
A--5555---5555---5555---5555---777---9---10-10-10---7---5-------------
E--3333---0000---3333---0000---000---7---08-08-08---5---3-------------
Figure 3 - 1 time
                     Jamie, I want you to know

Figure 4a
E--0000---0000---0000---0000---00-00-00-00-----------------------
B--0000---0000---0000---0000---00-00-00-00-----------------------
G--0000---7777---9999---7777---00-00-00-00-----------------------
D--5555---7777---9999---7777---10-10-10-10-----------------------
A--5555---5555---7777---5555---10-10-10-10-----------------------
E--3333---0000---0000---0000---08-08-08-08-----------------------
Figure 4a - 2 times
Jamie Oh Jamie, I’m so glad you're mine,

Figure 4b
E--0000---0000---0000---00-00-00-00------------------------------
B--0000---0000---0000---00-00-00-00------------------------------
G--0000---7777---0000---00-00-00-00------------------------------
D--5555---7777---9999---10-10-10-10------------------------------
A--5555---5555---9999---10-10-10-10------------------------------
E--3333---0000---7777---08-08-08-08------------------------------
Figure 4b - 1 time
                       We'll be together a long time
Figure 1
E--0000---0000---------------------------------------------------
B--0000---0000---------------------------------------------------
G--0000---7777---------------------------------------------------
D--5555---7777---------------------------------------------------
A--5555---5555---------------------------------------------------
E--3333---0000---------------------------------------------------
Figure 1 - 12 times
Hoo... Hoo... Hoo.. Hoo.. Jamie whatchu doin
                              now, dialin your car phone
Please please be true you know that I trust
                              you do that what you must do

Figure 2
E--0000---0000---0000---00-00-00-00-------------------------------
B--0000---0000---0000---00-00-00-00-------------------------------
G--0000---7777---0000---00-00-00-00-------------------------------
D--5555---7777---9999---10-10-10-10-------------------------------
A--5555---5555---9999---10-10-10-10-------------------------------
E--3333---0000---7777---08-08-08-08-------------------------------
Figure 2 - 2 times
When I was down came to me, and promised to
                              always be
By my side now you're gone and I'm waiting
                              patiently
Figure 3
E--0000---0000---0000---0000---000---0---00-00-00---0---0-------------
B--0000---0000---0000---0000---000---0---00-00-00---0---0-------------
G--0000---7777---0000---7777---999---0---00-00-00---0---0-------------
D--5555---7777---5555---7777---999---9---10-10-10---7---5-------------
A--5555---5555---5555---5555---777---9---10-10-10---7---5-------------
E--3333---0000---3333---0000---000---7---08-08-08---5---3-------------
Figure 3 - 1 time
Jamie, I want you to know...
Figure 4a
E--0000---0000---0000---0000---00-00-00-00-----------------------
B--0000---0000---0000---0000---00-00-00-00-----------------------
G--0000---7777---9999---7777---00-00-00-00-----------------------
D--5555---7777---9999---7777---10-10-10-10-----------------------
A--5555---5555---7777---5555---10-10-10-10-----------------------
E--3333---0000---0000---0000---08-08-08-08-----------------------
Figure 4a - 1 time
Jamie oh Jamie, I’m so glad you're mine
Figure 4b
E--0000---0000---0000---00-00-00-00------------------------------
B--0000---0000---0000---00-00-00-00------------------------------
G--0000---7777---0000---00-00-00-00------------------------------
D--5555---7777---9999---10-10-10-10------------------------------
A--5555---5555---9999---10-10-10-10------------------------------
E--3333---0000---7777---08-08-08-08------------------------------
Figure 4b - 1 time
                              We'll be together a long time
Figure 4a
E--0000---0000---0000---0000---00-00-00-00-----------------------
B--0000---0000---0000---0000---00-00-00-00-----------------------
G--0000---7777---9999---7777---00-00-00-00-----------------------
D--5555---7777---9999---7777---10-10-10-10-----------------------
A--5555---5555---7777---5555---10-10-10-10-----------------------
E--3333---0000---0000---0000---08-08-08-08-----------------------
Figure 4a - 1 time
                              You've got the Beach Boys
Your friends got the Stones

Figure 4b
E--0000---0000---0000---00-00-00-00------------------------------
B--0000---0000---0000---00-00-00-00------------------------------
G--0000---7777---0000---00-00-00-00------------------------------
D--5555---7777---9999---10-10-10-10------------------------------
A--5555---5555---9999---10-10-10-10------------------------------
E--3333---0000---7777---08-08-08-08------------------------------
Figure 4b - 1 time
                              But I know you won't lead me along

Figure 2 - 1 time
Sometimes it seems you're not with me

Figure 1 - 2 times
It hurts me so much, It hurts me so much

Figure 2 - 1 time
Sometimes it seems you're not with me

Figure 1 - 2 times
It hurts me so much, It hurts me so much

Solo - 2 times, (over top of Figure 1 - repeat 8 times)

Figure 2 - 4 times
You are the most you're so bad you're so
                              fresh and I’m so glad
I am yours you are mine, show me where and I
                              will sign
When I was down ya came to me and promised
                               you'd always be
By my side now you're gone and I'm waiting
                              waiting
Figure 4a - 1 time
Jamie Oh Jamie I’m so glad you're mine (so
                             glad you're mine)
Figure 4b - 1 time
                               We'll be together a long time

Figure 4a - 1 time
                               Jamie, believe me I wont let you down
Figure 4b - 1 time
                              'Cause you are the best lawyer in town

Figure 2 - 1 time
Sometimes it seems, you're not with me

Figure 1 - 2 times
It hurts me so much, It hurts me so much

Figure 2 - 1 time
Sometimes it seems, you're not with me

Figure 1 - 4 times
It hurts me so much, It hurts me so much
It hurts me so much, It hurts me so much

Figure 3 - 1 time

Figure 1 - 2 times
Hoo... Hoo..
Figure 3 - 1 time

Чтобы оставить комментарий, войдите

После регистрации мы вернём Вас на это же место
Комментарии
face-with-monocle
Если вы немного подождёте, здесь могут появиться комментарии!

Чшшш...