Clapton Eric logo

Ramblin On My Mind Clapton Eric

  • 0
  • Поделиться
  • Транспонировка
    0
  • Размер шрифта
    15
Clapton Eric – Ramblin On My Mind
You need the following chords: E7 - A7 - B7 (|-|V-V)

The main chord progression is (12 bar quick change Blues)

E7 - A7 - E7 - E7
A7 - A7 - E7 - E7
B7 - A7 - E7 - B7

The song structure is:
1st verse, 2nd verse, solo, 3rd verse, ending

Rhythm guitar
This is the basic riff, played with some variations. You can use also other
Fitting riffs or start with playing chords. Try them out!

E7  A7  B7
|-------------------| |-------------------| |-------------------|
|-------------------| |-------------------| |----0-0--0-0--0----|
|-------------------| |-------------------| |-------------------|
|-------------------| |--2-2-4-4-5-5-0----| |-------------------|
|--2-2-4-4-5-5-0----| |--0-0-0-0-0-0---4--| |--2---2------------|
|--0-0-0-0-0-0---3b-| |-------------------| |----------------3b-|

Intro
The intro starts with with a double stop (two notes played together)
Combined with a bending on one of the notes, followed by some common
Blues licks:

0tr1 means a triller: fast hammer-on and pull-off (0h1p0h1p0 etc.)

|-7--7--|-7--7--7\\----0-|----------------------|-----------|------------------|
|-8b-8b-|-8b-8b-8\\------|----------------------|-----------|------0---0-0-----|
|-------|---------------|----------------------|---0h1-2-3-|-4\\---------------|
|-------|---------------|-0tr2--0h2------------|-2---------|------------------|
|-------|-----------2---|-----------2-1-0------|-----------|----2---2-----2h4-|
|-------|---------------|-----------------3b-0-|-----------|--------------0---|
|- piano starts here I've got

First Verse

E7  A7  E7  E7
|------------------|-----------------|
|------------------|-----------------|
|------------------|-----------------|
|------------------|-2-2-4-4-5-5-0---|
|-2-2-4-4-5-5-0----|-0-0-0-0-0-0---4-|
|-0-0-0-0-0-0---3b-|-----------------|

E|-------------------------|-------------------------|
B|-------------------------|-------------------------|
G|-----0tr1-2-0tr1---------|-----0tr1-2 0tr1---------|
D|-------------------0-1-2-|-------------------0-1-2-|
A|-----------------2-------|-----------------2-------|
E|-0-0---------------------|-0-0---------------------|
Ramblin' I've got ramblin' I've got
All on my mind

A7  A7  E7  E7
|-------------------|--------------------|
|-------------------|--------------------|
|---------------2---|---------------2----|
|-2-2-4-4-5-5-4---2-|-2-2-4-4-5-5-4---2--|
|-0-0-0-0-0-0-0---0-|-0-0-0-0-0-0-0---0--|
|-------------------|--------------------|

E|-------------------------|-------------------------|
B|-------------------------|-------------------------|
G|-----0tr1-2 0tr1---------|-----0tr1-2 0tr1---------|
D|-------------------0-1-2-|-------------------0-1-2-|
A|-----------------2-------|-----------------2-------|
E|-0-0---------------------|-0-0---------------------|
Ramblin' I've got ramblin Is to leave
All on my mind

B7  A7  A7  A7
|-------------------|---------------------------|
|---0-0--0-0--0-----|---------------------------|
|-------------------|---------------------------|
|-------------------|-2---2----2--4b-2-4-2---2--|
|-2---2---------3b--|-0-0---/4-------------4----|
|-------------------|---------------------------|

E|-------------------------|-------------------|
B|-------------------------|----0---0----------|
G|-------------------------|----2-2-2----------|
D|------0-1-2-0------------|--2----------0-1-2-|
A|--------------2-1-0------|-----------2-------|
E|--0-0---------------3b-0-|-------------------|
My baby, 'cause she treats me so unkind I'm goin'

Second verse
(I'm goin') down to the station,
Catch that old fast milk train, you'll see.

I'm going down to the station,
Catch that old fast milk train, you'll see.
I've got the (continued as following:)

B7
|-----------2---2-------|---------------------------|
|---0-0---0---0---------|---------------------------|
|-------2---------------|---------------------------|
|-----------------2-0-1-|-2-2--4-4--5-5--0----------|
|-----------------------|-0-0--0-0--0-0-------------|
|-----------------------|------------------0--------|

E|-0-----------------------|---------------|
B|--------------------0----|---0---0-0--0--|
G|------0tr1-1-2-2-3-------|---------------|
D|-------------------------|---------------|
A|-----------2-3-3-4-------|-2---2---2-----|
E|-0--0--------------------|---------------|
Blues about Miss So 'n So, and the sun got the Blues 'bout me.

Solo
He plays around 1 note (!) doing full, half and quarter bends.
To keep the tab in a comfortable length, I've used (only for this song)
Bf for a full-tone bend,
Bh for a half tone bend,
Bq for a quarter tone bend and
Bb for hold bend, that means pick the string after bending it.
It's a good idea to practice these bends before playing the solo.
I think it's impossible to make an absolute exact tab of this solo,
You must listen to the record...

OK, now let's try it:

|----------------|----------------------------------|
|----8bh---8bh---|-10bf-10hb-10hb-(repeat 7 times)-|
|-/9-----9-------|----------------------------------|
|----------------|----------------------------------|
|----------------|----------------------------------|
|----------------|----------------------------------|

|-----------------------------------------------|
|-10hb-10hb-10hb-8-8bh-10hb-10bh-10bq-10br-8-10-|
|-----------------------------------------------|
|-----------------------------------------------|
|-----------------------------------------------|
|-----------------------------------------------|

(If you have problems with the scale at this position, you can also play it like

|--------------------|----------------------|
|--------------------|----------------------|
|-----12bh-----12bh--|-14bf-14bh-14bh-etc.--|
|-/14------/14-------|----------------------|
|--------------------|----------------------|
|--------------------|----------------------| )

|-----------------------|-7-5--------------------------|---------------|
|-10br-8---8-10-8-----5-|-----7rb-5---7-7bf-bh-7-5-7---|-7bf-7hb-7br-5-|
|--------9---------/6---|-----------6----------------6-|---------------|
|-----------------------|------------------------------|---------------|
|-----------------------|------------------------------|---------------|
|-----------------------|------------------------------|---------------|

|-----7---------7---------------------------------|--------------------------|
|-7bf---7hb-7bf---7hb-5---5-7-7bf-7bf-5-5-5-7bh---|----3-3-------------------|
|-----------------------6-----------------------6-|-/4-----\\2-2-2tr0---------|
|-------------------------------------------------|------------------2---0h2-|
|-------------------------------------------------|--------------------2-----|
|-------------------------------------------------|--------------------------|

|-----0--0-----0-0-----0-0---|----------------|
|---0----0-------0-------0---|-0---0--0---0---|
|----------3p2-----3p2-------|-1--------2-----|
|----------------------------|----------------|
|----------------------------|---2-2------2---|
|-0--------------------------|----------------|

Third verse
(Played same as first)

(I got) mean things,
I've got mean things all on my mind.

Little girl, little girl,
I've got mean things all on my mind.

Is to leave my baby,
Cause she treats me so unkind.

Ending

|------------------------------3/4----|
|------------------------------2/3----|
|---0tr1-------2----3----4\\----3/4----|
|-------------------------------------|
|------2-------3-3--4-4--5\\-----------|
|-0-------3b-0------------------------|

That was it!

Чтобы оставить комментарий, войдите

После регистрации мы вернём Вас на это же место
Комментарии
face-with-monocle
Если вы немного подождёте, здесь могут появиться комментарии!

Чшшш...