Cky logo

Sink Into The Underground Cky

  • 1
  • Поделиться
  • Размер шрифта
    15
Cky – Sink Into The Underground
-Sink Into the Underground- Cky... (D-G-C-F- A-D)
I'm pretty sure this is 100% correct... if not i'll work on it and put
A new one on here... alrighty? enjoi :)

Intro
|------------------------------------------------------
|------------------------------------------------------
|------------------------------------------------------
|------------------------------------------------------
|-------66-99-77-66-4-2-2/6----66-44-22---------6-4-2--
|-44-77---------------------22----------44-22-4--------

Verses
|----------------------------------------------------|--------|
|----------------------------------------------------|--------|
|----------------------------------------------------|--------|
|-6~/--4-6-4-6~/--4~--4-4---6~/--4-6-4-6~/--4~--4-4--|-2-1----|
|-6~/--4-6-4-6~/--4~--4-4---6~/--4-6-4-6~/--4~--4-4--|-----4--|
|-4~/--2-4-2-4~/--2~--2-2---4~/--2-4-2-4~/--2~--2-2--|--------|

Pre-Chorus
|----------------|
|----------------|
|------8---------|
|-2~---6---4--6--|
|-2~---6---4--6--|
|-0~-------2--4--|

|-------------------------------------------------------------------------
|-------------------------------------------------------------------------
|-------------------------------------------------------------------------
|-6~/--4-6-4-6~/--4~--4-4-------------------------------------------------
|-6~/--4-6-4-6~/--4~--4-4--------66-99-77-66-4-2-2/6----66-44-22----------
|-4~/--2-4-2-4~/--2~--2-2--44-77---------------------22----------44-22-4--

|--------|
|--------|
|--------|
|-6-4-2--|
|--------|
|--------|

|-----------------------------------------------------|
|-----------------------------------------------------|
|-----------------------------------------------------|
|------------------------2-4~--2-4-2-4-2-4~--2-4-2-4--|
|-------6-9-7-6-7-6-4-2--2-4~--2-4-2-4-2-4~--2-4-2-4--|
|-44-77------------------0-2~--0-2-0-2-0-2~--0-2-0-2--|

There you go... Good Luck... Just listen to the song you'll get it.
...Mark Davidson...

Чтобы оставить комментарий, войдите

После регистрации мы вернём Вас на это же место
Комментарии
face-with-monocle
Если вы немного подождёте, здесь могут появиться комментарии!

Чшшш...