Чиж logo

Идиллия Чиж

  • 4
  • Поделиться
  • Транспонировка
    0
  • Размер шрифта
    15
Чиж – Идиллия
1]-------------------------|----------------------|------------------------|
2]------7-7---------12--7--|------7-7------12--7--|------7-7--------12--7--|
3]----7-----7----12--------|----7-----7----12-----|----7-----7---12--------|
4]--7---------7------------|--7---------7---------|--7---------7-----------|
5]-------------------------|----------------------|------------------------|
6]-------------------------|----------------------|------------------------|

1]----------------------|
2]------7-7------12-----|
3]----7-----7------(7)--|   -> 2 раза. То, что в скобках - второй раз
4]--7---------7---------|                                 не играется.
5]----------------------|
6]----------------------|

Во время второго раза вступает акустика: Fixed ;)
Вот в этих местах как бы резко убирается и ставится на другой аккорд :-)

   V
E|-3-----------------------|-3--------------0--------|
B|-0h3--3-3--3----3-----3--|-0h3--3----3----3-----3--|
G|-0h2--2-2--0----0-----0-0|-0h2--2----0----0-----0-0|
D|------0-0--2----------2--|------0----2----------2--|
A|----------------3---3----|----------------3---3----|
E|-3-----------------------|-3-----------------------|

E|-3-----------------------|-3---------------|
B|-0h3--3----3----2--------|-0h3--3----3-----|
G|-0h2--2----0----0----0---|-0h2--2----0-----|
D|------0----2------0h2-2p0|------0----2-----|
A|----------------3--------|-----------------|
E|-3-----------------------|-3---------------|

1 куплет играется так: Fixed ;)
X - удар подушечками пальцев по струнам (струны издают короткий звук ц)

   D5   Em7    G    Csus2   D5   Em7    G    Csus2
E|------------------------|-------------------------|
B|-3--X-3----X-3--X-3----X|-3--X-3----X-3--X-3---3--|
G|-2--X-0----X-0--X-0----X|-2--X-0----X-0--X-0---0-0| x2
D|-0--X-2----X------------|-0--X-2----X----------2--|
A|-------------2--X-3----X|-------------2--X-3-3----|
E|------------------------|-------------------------|

   G    D      C    D
E|-3--X-2----X-0--X-2----X|
B|-3--X-3----X-1--X-3----X|
G|-4--X-2----X-0--X-2----X|  x2
D|------0----X------0----X|
A|-------------3--X-------|
E|-3--X-------------------|

   G    G      D    Em    Em9/C       D
E|-3--X-3----X-2--X-----|-----------------------2h3p2|
B|-3--X-3----X-3--X-0---|-------3-------3-----3------|
G|-4--X-4----X-2--X-0---|-----0-------0-----2--------|
D|-------------0--X-2---|---4-------4-----0----------|
A|------5----X------2---|---------3------------------|
E|-3--X-----------------|-0--------------------------|

   D5     Em7       G        Csus2
Странное чувство какой-то вины -
        D5      Em7    G        Csus2
Мы так редко бываем с тобою вдвоем.
   D5       Em7     G       Csus2
Стоят разведенными наши мосты
   D5         Em7      G        Csus2
И каждый замкнулся на чем-то своем

      G           D      C         D
Взгляни мне в глаза, не бойся, смелей!
      G            D     C        D
Ты почувствуешь, сразу станет теплей
     G       G          D         Em
И вспомни о том, как однажды сплелись
    Em9/C          D
Драко-ны наших страстей

   Далее идет проигрыш, который я играю примерно так: Fixed
   G           C        D        G           C
1|-------3/5-3----|-----3-3-2--|-------3/5-3----|------------|
2|-0-1-3-------1--|-1-1--------|-0-1-3-------1--|-1h3--------|  x2
3|-0-----------0--|-----2------|-0-----------0--|----(0h2-0)-| В скобках
4|----------------|-----0------|----------------|------------| 2й раз не
5|-------------3--|------------|-------------3--|------------| играть
6|-3--------------|------------|-3--------------|------------|

2 и 3 куплеты как 1, но можно без наворотов - просто аккорды :)

  D5     Em7       G        Csus2
Не убеждай меня в том, что я стал
  D5     Em7     G  Csus2
Заметно старее лицом
  D5     Em7       G        Csus2
Не говори мне, что это сказалась
  D5     Em7     G  Csus2
Крепкая дружба с вином.

     G           D      C       D
Не упрекай, что в последнее время
     G         D   C    D
Я стал равнодушен к тебе
    G       G      D     Em
И не пытайся казаться чужой,
   Em9/C          D
Я знаю, ты веришь мне.

   Далее идет проигрыш, который я играю примерно так: Fixed
   G           C        D        G           C
1|-------3/5-3----|-----3-3-2--|-------3/5-3----|------------|
2|-0-1-3-------1--|-1-1--------|-0-1-3-------1--|-1h3--------|  x2
3|-0-----------0--|-----2------|-0-----------0--|----(0h2-0)-| В скобках
4|----------------|-----0------|----------------|------------| 2й раз не
5|-------------3--|------------|-------------3--|------------| играть
6|-3--------------|------------|-3--------------|------------|

   D5     Em7       G        Csus2
Возьми мою грусть, прими мою радость,
  D5     Em7       G        Csus2
Кто еще может быть ближе  тебе?
  D5     Em7       G       Csus2
И бережно ставя в угол гитару,
  D5     Em7       G        Csus2
Ты скажешь: Во всем виновата она!

      G           D      C  D
 Меня от всей души рассмешит
      G           D      C       D
 До слез, твой по-детски наивный укол.
     G       G      D     Em
 Я знаю, что ты и сама влюблена,
     Em9/C           D
1|-----------|--------------2h3-2-------3-2h3p2-----2---|
2|---------3-|------3-----4-------3-------------3-------|
3|-------0---|----0-----2-----------2-------------2-----|
4|-----4-----|--4-----0---------------0-----------------|
5|-----------|3-----------------------------------------|
6|---0-------|------------------------------------------|
 Не меньше меня в рок-н-ролл.

   C                D                G                Em7
E|-0-----0-------0|-2-----2-------0|-3-----3-------0|-0-----0--------|
B|-----1---1---1--|-----3---3---3--|-----3---3---3--|-----3---3------|
G|---0-------0----|---2-------2----|---4-------4----|---0-------0---0|
D|----------------|-0--------------|----------------|-------------2--|
A|-3--------------|----------------|----------------|----------------|
E|----------------|----------------|-3--------------|-0--------------|
 Идилия наша,  настолько нелепа, что мы не находим слова.

     C                D                   G      C      A7sus4
  E|-0-----0-------0|-2-----2h3p2----|----3---------------------------
  B|-----1---1---1--|-----3-------3--|----0------1---------3----------
  G|---0-------0----|---2-----------2|----0------0--------0-----------
  D|----------------|-0--------------|-------------------2------------
  A|-3--------------|----------------|-----------3------0-------------
  E|----------------|----------------|----3---------------------------
Мы все понимаем, мы просто смеемся, нам нравится эта игра...

Чтобы оставить комментарий, войдите

После регистрации мы вернём Вас на это же место
Комментарии
face-with-monocle
Если вы немного подождёте, здесь могут появиться комментарии!

Чшшш...