• 1
  • Поделиться
  • Размер шрифта
    15
Bowling For Soup – Belgium
Artist:Bowling For Soup
Song:Belgium
Album:Lets Do It For Johnny (acustic version at the end of Drunk Enough To Dance album)

Intro
G:----------------------------------|
D:----------------------------------|
A:---------55~-----3~------7-7-5-5--|x2
E:-3~-------------------------------|

Verse 1
G:----------------------------------|
D:----------------------------------|
A:---------5~------3~------7~--5~---|x2
E:-3~-------------------------------|

Pre Chorus
G:----------------------------------|
D:----------------------------------|
A:---------33333333--------5---555--|x1
E:-55555555--------33333333---------|

G:----------------------------------|
D:----------------------------------|
A:---------33333333--------55--55---|x1
E:-55555555--------33333333---------|

Chorus 1
G:----------------------------------|
D:----------------------------------|
A:---------555555557777777733335555-|x4
E:-33333333-------------------------|

Post Chorus
G:----------------------------------|
D:----------------------------------|
A:---------55555---33333---777-555--|x2
E:-33333----------------------------|

Verse 2
G:----------------------------------|
D:----------------------------------|
A:---------555555553333333377775555-|x
E:-33333333-------------------------|

Pre Chorus
G:----------------------------------|
D:----------------------------------|
A:---------33333333--------5---555--|x1
E:-55555555--------33333333---------|

G:----------------------------------|
D:----------------------------------|
A:---------33333333--------55--55---|x1
E:-55555555--------33333333---------|

Chorus 2
G:----------------------------------|
D:----------------------------------|
A:---------555555557777777733335555-|x3
E:-33333333-------------------------|

G:----------------------------------|
D:----------------------------------|
A:---------55555555777777773.-------|x1
E:-33333333-------------------------|

Intro
G:----------------------------------|
D:----------------------------------|
A:---------55~-----3~------7-7-5-5--|x2
E:-3~-------------------------------|

Bridge
G:----------------------------------|
D:----------------------------------|
A:---------555555553333333377775555-|x2
E:-33333333-------------------------|

G:----------------------------------|
D:----------------------------------|
A:---------555555557777777733335555-|x3
E:-33333333-------------------------|

G:----------------------------------|
D:----------------------------------|
A:---------555555557~----/1---------|x1
E:-33333333-------------------------|

Outro
G:----------------------------------|  |----------|
D:----------------------------------|  |----------|
A:---------55555---33333---777-555--|x4|----------|x1
E:-33333----------------------------|  |-3----333-|

Чтобы оставить комментарий, войдите

После регистрации мы вернём Вас на это же место
Комментарии
face-with-monocle
Если вы немного подождёте, здесь могут появиться комментарии!

Чшшш...