Blink 182 logo

Dicklips Blink 182

  • 1
  • Поделиться
  • Размер шрифта
    15
Blink 182 – Dicklips
    Intro        Куплет        Intro 2   Chorus
E|------------------------------------------------------|
B|------------------------------------------------------|
G|--(7)-(9)--2-2-7-------7------(7)-(9)--2-7------------|
D|-7-7-7-9---2-2-7-9-7-7-7-9---7-7-7-9---2-7-7-2--------|
A|-4-5-7-7---0-0-5-9-7-7-5-9---4-5-7-7---0-5-7-2--------|
E|-----5-----------7-5-5---7-------5---------5-0--------|

2раза                       2раза     2раза

Solo:
E|-------|-----------|-----|
B|-------|-----------|-----|
G|---7-9-|---7-6---7-|-14--|
D|-7-7-9-|-7-7-6-2-7-|-14--| - только
A|-4-5-7-|-7-5-4-2-5-|-12--|
E|-------|-5-----0---|-----|

2  раза   4  раза   x-раз

Чтобы оставить комментарий, войдите

После регистрации мы вернём Вас на это же место
Комментарии
face-with-monocle
Если вы немного подождёте, здесь могут появиться комментарии!

Чшшш...