Blink 182 logo

Cacophony Blink 182

  • 0
  • Поделиться
  • Транспонировка
    0
  • Размер шрифта
    15
Blink 182 – Cacophony
Bass intro:
G|---------------------------------------------|
D|---------------------------------------------|
A|-----3--------3--------7--------3------------|
E|-0-0---0--3-3---3--5-5---5--1-1---1----------|

Geetar intro:
E|---------------------------------------------|
B|--5-5-5-5-5--10-10-9-5-5-5--5-5-5-5-4-5------|
G|---------------------------------------------|
D|---------------------------------------------|
A|---------------------------------------------|
E|---------------------------------------------|

Verse riff:
E|---------------------------------------------|
B|---------------------------------------------|
G|---------------------------------------------|
D|---------------------------------------------|
A|------3------3----------7h8p7--------3-------|
E|--0-0---0--3---3-3--5-5-------5--1-1---1-----|

(Verse riff)
X1 x2 x3
When u talk about 2morrow i'm not sure about 2day when u
X4 A
Tell me that u love me what Am i supposed to say sometimes
F  A C F
I don't feel the same way as u feel
(geetar intro x1)
(verse riff)
X1 x2 x3
Words like forever scare the shit out of me maybe i'm afraid
X4 A
Of commitment maybe your 2 distracted 2 c that sometimes
F  A C F
I don't feel the same way as u feel
C, F, G, C, F, G,
C  A F
I think of all the things i'd say to you if i had the chance
C A F C
Again i think of all the things that i'd scream and i think
A  F  C A
It's for the best when u and i just don't connect and things
F E F C
Are never quite what they seem will there ever be someone to
G E F C E
Give her heart 2 me or will i b 2 blind 2 see it i wouldn't
C  G E F
Make a sound i'd keep it underground it always seems like i'm
C G
Running around
C, F, G, C, F, G,
A F A C F G, C.
Sometimes i don't feel the same way as you feel

Чтобы оставить комментарий, войдите

После регистрации мы вернём Вас на это же место
Комментарии
face-with-monocle
Если вы немного подождёте, здесь могут появиться комментарии!

Чшшш...