Bigwig logo

Freegan Bigwig

  • 0
  • Поделиться
  • Транспонировка
    0
  • Размер шрифта
    15
Bigwig – Freegan
Intro.
|-12-15----15-13-12-10-8-10-12-13-12-10-7-8-
|-------15----------------------------------
|--------------------------------------------
|--------------------------------------------
|--------------------------------------------
|--------------------------------------------

        C#    A#       Am      G#    F#    G#
Well i'd club a baby seal , but you know i wouldnt ingest it.
C#    A#     Am      G#      F#           G#
I'd tell my vegan girlfriend, you know I wouldnt suggest it.
F#        G#       C#    A#   Am
Well all my shoes are leather, and I dont care wether
G#       F#               G#
Or not , all the cute little animals were to be SBoT !

|12-15----15-13-12-10-8-10-12-13-12-10-15-13-12-13-12-10-7-8-
|------15----------------------------------------------------
|------------------------------------------------------------
|------------------------------------------------------------
|------------------------------------------------------------
|------------------------------------------------------------
                        were to be shot

Consider someone else, stop preaching about animals

  C#    A#    A   G#    F#
E|---------------------------|
B|---------------------------|
G|-6----3--------------------|
D|-6----3----7----6----4-----|
A|-4----1----7----6----4-----|
E|-----------5----4----2-----|

The timing of the chords may not be perfectly placed, but what can ya do!?

Чтобы оставить комментарий, войдите

После регистрации мы вернём Вас на это же место
Комментарии
face-with-monocle
Если вы немного подождёте, здесь могут появиться комментарии!

Чшшш...