Biffy Clyro logo

Justboy Biffy Clyro

  • 4
  • Поделиться
  • Размер шрифта
    15
Biffy Clyro – Justboy
Intro:
G:-----------------------------------------------------
D:-----------------------------------------------------
A:-4-444-45--------------------------------------------
D:-----------5-555-5-0-000-0-7-777-7-4-444-4-5-555-5-7-

0:42
G:--------------------------------
D:--------------------------------
A:-5-555-5------------------------ 3 times
D:---------7-777-7-5-555-5-555-5--

G:--------------------------------
D:--------------------------------
A:--------------------------------
D:-0-000-0-7-777-7-5-555-5-555----

G:--------------------------------
D:--------------------------------
A:--------------------------------
D:-2-2-2-2-2-5-5-5-5-5-22222-55555

Chorus
G:----------------------------------------------------------
D:----------------------------------------------------------
A:-55555-4444-55555----------------------------------------- 2 times
D:------------------5-555-5-555--9-999-9-7-777-7-5-555-5-555

Verse
G:-------------------------------
D:--------7--------7-------------
A:-5-5-5------------------------- 5 times
D:----------7-7-7-----5-5-5-5-5-5

G:--------------------
D:--------------------
A:-----------5-4------ 1 time
D:-0000-4444-----55555

G:-----------------------------------
D:-----------------------------------
A:----------------------------------- 1 times
D:-2-2-2-2-2-5-5-5-5-5-22222-55555-77

Chorus
G:----------------------------------------------------------
D:----------------------------------------------------------
A:-55555-4444-55555----------------------------------------- 2 times
D:------------------5-555-5-555--9-999-9-7-777-7-5-555-5-555

Bridge
G:----------------------
D:----------------------
A:---------------------- 1 time
D:-4444-5555-00000-77777

G:-----------------------------------------------
D:-----------------------------------------------
A:-4444-4444-5----------------------------------- 2 times
D:-------------5555555-44444-55555-00000-4-5-7777

G:---------------------------------
D:---------------------------------
A:-4444-4444-5--------------------- 1 time
D:-------------5555555-4444-5-4-2-0

Outro
G:------------------------
D:------------------------
A:------------------------ 3 times
D:-00000-77777-44444-55555

G:---------------------------
D:---------------------------
A:--------------------------- 1 times
D:-00000-4-5-7777-4444-5----0

Every once in a while i see your face, i'm feeling half the man
Then you cup your hands you throw me away, i'm under

But then everything beneath me fails, i'm feeling half the man
Then you shut your eyes, you close me away, i'm under

I'm alone with these thoughts of mine
People look and tell me justboy

I don't believe in anything
That's the message in your eyes
I don't believe in anything
That's the message in your eyes

I have tried so hard to leave this place, im felling under?high?
I want to catch your breath here again, and kiss you

I'm alone with these thoughts of mine
People look and tell me justboy

I don't believe in anything
That's the message in your eyes
I don't believe in anything
That's the message in your eyes

I am hoping through the dark clouds
Light shall break and bring a bright sky
I am hoping through the dark clouds
Light shall break and bring a bright sky
I am hoping through the dark clouds
Light shall break and bring a bright sky

Light shall break and bring a bright sky

Чтобы оставить комментарий, войдите

После регистрации мы вернём Вас на это же место
Комментарии
face-with-monocle
Если вы немного подождёте, здесь могут появиться комментарии!

Чшшш...