• 0
  • Поделиться
  • Транспонировка
    0
  • Размер шрифта
    15
Audio Adrenaline – Underdog
Underdog – Audio Adrenaline

Intro: G5(355xxx),B5(x24400),E5(x79900) C5(x35500)

Verse: (bass only)
C(x32010)   B(x24442)        E (022000)
I am so weak and I’m so tired, its hard for me to
C        B        E
Find enough strength to feed the fire, and
Fuel my ego
(Enter guitar pickage)
E----0---------0-------------------|
B--3----3----3----3-----0---0---0--|
G-5-5--5-5--4-4--4-4--0----0---0---|
D--------------------2-2--2---2----|
  C         B         Em

E----0----------------------------------|
B--3----3------5-7-5--------------------|
G-5-5--5-5--5/7-7-7-7-------------------|
D-----------------------5---5---5---5---|
A-----------------------5---5---5---5---|
E-----------------------3-X-3-X-3-X-3-X-|
  C           D         G5

     G5          B5
Chorus:   Been beat up.  Been broken down
E5           C5     C5
  Nowhere but up when your face down on the ground
G5         B5
  I’m in last place,  if I place at all
E5             C5
 But there’s hope for this underdog.
G5          B5      E5    C5
That’s the way uh huh we like it, uh huh uh huh
G5          B5      E5
That’s the way uh huh we like it, they call me the underdog

Post-chorus riff:
G--0-0-0-------------| (This same riff is played
D-5-4-2-0------------|  four times right at the
A---------2h3p2h3p2--|  end of the song)

Verse 2 is the same notes picked as first

Bridge: No guitar while the guy preaches, then
G-------------------------|
D-5--5--5--5--5--7--9--9--|
Something like that,
While someone sings the first part of chorus in the background

Chorus

Чтобы оставить комментарий, войдите

После регистрации мы вернём Вас на это же место
Комментарии
face-with-monocle
Если вы немного подождёте, здесь могут появиться комментарии!

Чшшш...