Angra logo

Evil Warning Angra

  • 0
  • Поделиться
  • Размер шрифта
    15
Angra – Evil Warning
EVIL WARNING    [ANGRA]

   GUITAR.
E||--------------------|-----------3--------|---------------------|
B||-----------6--------|--4--------3--------|--11--------6--------|
G||--3--------5--------|--3--------0--------|--10--------5--------|
D||--3--------3--------|--1-----------------|--8---------3--------|
A||--1-----------------|--------------------|---------------------|
E||--------------------|--------------------|---------------------|

-------------------|--------------------|-----------3--------|
--4----------------|-----------6--------|--4--------3--------|
--3----------------|--3--------5--------|--3--------0--------|
--1----------------|--3--------3--------|--1-----------------|
-------------------|--1-----------------|--------------------|
-------------------|--------------------|--------------------|

                enter Keys
---------------------|-------------------|------------------|
--11--------6--------|-------------------|------------------|
--10--------5--------|-------------------|------------------|
--8---------3--------|--5----------------|------------------|
---------------------|--5----------------|------------------|
---------------------|--3----------------|------------------|

                     [A]
-------------------|------------------|-------------------|--------------------|
-------------------|------------------|-------------------|--------------------|
-------------------|------------------|-------------------|-----------3--------|
--5----------------|------------------|--5----------------|--3--------0--------|
--5----------------|------------------|--5----------------|--3-----------------|
--3----------------|------------------|--3----------------|--1-----------------|

-------------------|--------------------|-------------------|
-------------------|--------------------|-------------------|
--3----------------|--3-----------------|-------------------|
--1----------------|--3--------3--------|----5--------------|
-------------------|--1--------3--------|----5--------------|
-------------------|-----------1--------|----3--------------|

                            [ends A]
--------------------|-------------------|---------------------|
--------------------|-------------------|---------------------|
---------------3----|--3----------------|--3------------------|
----------3----0----|--1----------------|--3--------3----3----|
----------3---------|-------------------|--1--------0----3----|
----------1---------|-------------------|----------------1----|

   [0.12]  Keyboard arenged for guitar.
E||------10--------------------------------|
B||----------------13--11------10----------|
G||-------------------------------12-10-12-|
D||--12------12-12---------12--------------|
A||----------------------------------------|
E||----------------------------------------|

|------------------------------------|
|------11--------13------------------|
|--------------------14----------10--|
|--12------12-12---------15--12------|
|------------------------------------|
|------------------------------------|

|------10--------------------------------------|
|----------------13----11----------10----------|
|-12------12-12----12----12-10-12----12-10-12-|
|---------------------------------------------|
|----------------------------------------------|
|----------------------------------------------|
         [repeat through intro]
|--------------------------------------|
|--------11--------13------------------|
|----------------------14----------10-*|
|--12-12-----12-12---------15--12-----*|
|--------------------------------------|
|--------------------------------------|

  guitar 1 [intro melody]
------------------13----|--10----------------------|------------------13----|
--11--------13----------|--------11----13----10----|--11--------13----------|
------------------------|--------------------------|------------------------|
------------------------|--------------------------|------------------------|
------------------------|--------------------------|------------------------|
------------------------|--------------------------|------------------------|

--10--------------------|------------------13----|--10----------------------|
--------11----13--------|--11--------13----------|--------11----13----10----|
------------------------|------------------------|--------------------------|
------------------------|------------------------|--------------------------|
------------------------|------------------------|--------------------------|
------------------------|------------------------|--------------------------|

------------------------|--------------------|------------------13----|
--11--------10----------|--------------------|--11--------13----------|
------------------12----|--10----------------|------------------------|
------------------------|--------------------|------------------------|
------------------------|--------------------|------------------------|
------------------------|--------------------|------------------------|

--10----------------------|------------------13----|--10--------------------|
--------11----13----10----|--11--------13----------|--------11----13--------|
--------------------------|------------------------|------------------------|
--------------------------|------------------------|------------------------|
--------------------------|------------------------|------------------------|
--------------------------|------------------------|------------------------|

------------------13----|--10----------------------|------------------------|
--11--------13----------|--------11----13----10----|--11--------10----------|
------------------------|--------------------------|------------------12----|
------------------------|--------------------------|------------------------|
------------------------|--------------------------|------------------------|
------------------------|--------------------------|------------------------|

--------------------|
--------------------|
--10----------------|
--------------------|
--------------------|
--------------------|

   Killer rhythm!!!!!!!!!!                                       x3
|--------------------------------------|-------------------------------|
|--------3--------3--------3--------1--|--3----------------------------|
|--------2--------2--------2--------0--|--2--------------5-------5--7--|
|--0--0-----0--0-----0--0-----0--0-----|-----0--0--0--0-------7-----0--|
|--------------------------------------|-----------------3----0--3-----|
|--------------------------------------|-------------------------------|

E||--------------------------------------|
B||--------3--------3--------3--------1--|
G||--------2--------2--------2--------0--|
D||--0--0-----0--0-----0--0-----0--0-----|
A||--------------------------------------|
E||--------------------------------------|

  g1 & g2
-----------0--0--0--0--1--1--2--2--3--3--3--3--|
--3--4--4--------------------------------------|
--2--------------------------------------------|
-----1--1--2--2--2--2--3--3--4--4--5--5--5--5--|
-----------------------------------------------|
-----------------------------------------------|

--------------------------------------|-------------------------------------|
--3--------------3--3--------------3--|--1--------------1----------------1--|
--2--------------2--2--------------2--|--0--------------0----------------0--|
--0--0--0--0--0--0--0--0--0--0--0--0--|-----0--0--0--0-------0--0--0--0-----|
--------------------------------------|-------------------------------------|
--------------------------------------|-------------------------------------|

--------------------------------------|
--3--------------3--3--------------3--|
--2--------------2--2--------------2--|
--0--0--0--0--0--0--0--0--0--0--0--0--|
--------------------------------------|
--------------------------------------|

--------------------------------------------------|
--------------------------------------------------|
--2--2--2--2--2--2--2--2--2--2--2--2--2--2--2--2--|
--------------------------------------------------|
--0--0--0--0--0--0--0--0--0--0--0--0--0--0--0--0--|
--------------------------------------------------|

--------------------------------------|--------------------------------------|
--3--------------3--3--------------3--|--3--------------3--3--------------3--|
--2--------------2--2--------------2--|--2--------------2--2--------------2--|
--0--0--0--0--0--0--0--0--0--0--0--0--|--0--0--0--0--0--0--0--0--0--0--0--0--|
--------------------------------------|--------------------------------------|
--------------------------------------|--------------------------------------|

--------------------------------------------------|
--------------------------------------------------|
--3--3--3--3--3--2--3--3--3--3--2--3--3--3--3--3--|
--------------------------------------------------|
--1--1--1--1--1--0--1--1--1--1--0--1--1--1--1--1--|
--------------------------------------------------|

--------------------------------------------------|
--------------------------------------------------|
--3--3--3--2--2--2--3--3--3--3--3--3--3--3--3--3--|
--------------------------------------------------|
--1--1--1--0--0--0--1--1--1--1--1--1--1--1--1--1--|
--------------------------------------------------|

--------------------------------------|-------------------------------------|
--3--------------3--3--------------3--|--1--------------1----------------1--|
--2--------------2--2--------------2--|--0--------------0----------------0--|
--0--0--0--0--0--0--0--0--0--0--0--0--|-----0--0--0--0-------0--0--0--0-----|
--------------------------------------|-------------------------------------|
--------------------------------------|-------------------------------------|

--------------------------------------|
--3--------------3--3--------------3--|
--2--------------2--2--------------2--|
--0--0--0--0--0--0--0--0--0--0--0--0--|
--------------------------------------|
--------------------------------------|

--------------------------------------------------|
--------------------------------------------------|
--2--2--2--2--2--2--2--2--2--2--2--2--2--2--2--2--|
--------------------------------------------------|
--0--0--0--0--0--0--0--0--0--0--0--0--0--0--0--0--|
--------------------------------------------------|

--------------------------------------|--------------------------------------|
--3--------------3--3--------------3--|--3--------------3--3--------------3--|
--2--------------2--2--------------2--|--2--------------2--2--------------2--|
--0--0--0--0--0--0--0--0--0--0--0--0--|--0--0--0--0--0--0--0--0--0--0--0--0--|
--------------------------------------|--------------------------------------|
--------------------------------------|--------------------------------------|

--------------------------------------------------|
--------------------------------------------------|
--3--3--3--3--3--2--3--3--3--3--2--3--3--3--3--3--|
--------------------------------------------------|
--1--1--1--1--1--0--1--1--1--1--0--1--1--1--1--1--|
--------------------------------------------------|

--------------------------------------------------|
--------------------------------------------------|
--3--3--3--3--3--3--3--3--3--3--3--3--3--3--3--3--|
--------------------------------------------------|
--1--1--1--1--1--1--1--1--1--1--1--1--1--1--1--1--|
--------------------------------------------------|

Bridge   Eviel warning.........
--------------------------------------|-------------------------------|
--------3--------3--------3--------1--|--3----------------------------|
--------2--------2--------2--------0--|--2----------------------------|
--0--0-----0--0-----0--0-----0--0-----|-----0--0--0--0-------------0--|
--------------------------------------|-----------------3----0--3-----|
--------------------------------------|-------------------------------|

--------------------------------------|-------------------||
--------3--------3--------3--------3--|--1----------------||
--------2--------2--------2--------2--|--0----------------||
--0--0-----0--0-----0--0-----0--0-----|-------------------||
--------------------------------------|-------------------||
--------------------------------------|-------------------||

E||--------------------------------------|-------------------------------|
B||--------3--------3--------3--------1--|--3----------------------------|
G||--------2--------2--------2--------0--|--2----------------------------|
D||--0--0-----0--0-----0--0-----0--0-----|-----0--0--0--0----------------|
A||--------------------------------------|-----------------3----0--3--5--|
E||--------------------------------------|-------------------------------|

--------------------------------------|-------------------------------------|
--------3--------3--------3--------3--|-------------------------------------|
--------2--------2--------2--------2--|--5--------------5--5-------------5--|
--0--0-----0--0-----0--0-----0--0-----|--5--------------5--5-------------5--|
--------------------------------------|--3--3--3--3--3--3--3-3--3--3--3--3--|
--------------------------------------|-------------------------------------|

                      x2
|------------------------------------------|
|------------------------------------------|
|------------------------------------------|
|--5---5--5--5--5--5---5---5--5--5--5--5---|
|--5---5--5--5--5--5---5---5--5--5--5--5---|
|--3---3--3--3--3--3---3---3--3--3--3--3---|

------------------------------------------|--------------------||
------------------------------------------|-----------3--------||
--3---3--3--3--3--3---3---3--3--3--3--3---|--3--------3--------||
--3---3--3--3--3--3---3---3--3--3--3--3---|--3--------3--------||
--1---1--1--1--1--1---1---1--1--1--1--1---|--1--------1--------||
------------------------------------------|--------------------||

--------------------------------------|-------------------------------|
--------3--------3--------3--------1--|--3----------------------------|
--------2--------2--------2--------0--|--2--------------5-------5--7--|
--0--0-----0--0-----0--0-----0--0-----|-----0--0--0--0-------7-----0--|
--------------------------------------|-----------------3----0--3-----|
--------------------------------------|-------------------------------|

--------------------------------------|-------------------||
--------3--------3--------3--------3--|--1----------------||
--------2--------2--------2--------2--|--0----------------||
--0--0-----0--0-----0--0-----0--0-----|-------------------||
--------------------------------------|-------------------||
--------------------------------------|-------------------||

E||--------------------------------------|-------------------------------|
B||--------3--------3--------3--------1--|--3----------------------------|
G||--------2--------2--------2--------0--|--2----------------------------|
D||--0--0-----0--0-----0--0-----0--0-----|-----0--0--0--0----------------|
A||--------------------------------------|-----------------3----0--3--5--|
E||--------------------------------------|-------------------------------|

--------------------------------------|-------------------------------------|
--------3--------3--------3--------3--|-------------------------------------|
--------2--------2--------2--------2--|--5--------------5--5-------------5--|
--0--0-----0--0-----0--0-----0--0-----|--5--------------5--5-------------5--|
--------------------------------------|--3--3--3--3--3--3--3-3--3--3--3--3--|
--------------------------------------|-------------------------------------|

                       x2
|------------------------------------------|
|------------------------------------------|
|------------------------------------------|
|--3---3--3--3--3--3---3---3--3--3--3--3---|
|--3---3--3--3--3--3---3---3--3--3--3--3---|
|--1---1--1--1--1--1---1---1--1--1--1--1---|

|--------------------------------------------------|-------------------|
|--------------------------------------------------|--4----------------|
|--------------------------------------------------|--3----------------|
|--1--1--1--1--1--1--1--1--1--1--1--1--1--1--1--1--|--1----------------|
|--------------------------------------------------|-------------------|
|--------------------------------------------------|-------------------|

-------------------|------------------|-------------------|-------------------|
-------------------|------------------|-------------------|--3----------------|
-------------------|------------------|-------------------|--2----------------|
--5----------------|------------------|--3----------------|--0----------------|
--5----------------|------------------|--3----------------|-------------------|
--3----------------|------------------|--1----------------|-------------------|

--------------------|-------------------|------------------|-------------------|
--------------------|-------------------|------------------|-------------------|
--5-----------------|-------------------|------------------|-------------------|
--5--------3--------|----5--------------|------------------|--3----------------|
--3--------3--------|----5--------------|------------------|--3----------------|
-----------1--------|----3--------------|------------------|--1----------------|

-------------------|--------------------------------------------------|
--3----------------|--------------4--4--1--1--------------------------|
--2----------------|--0--0--3--3--3--3--1--1--3--3--1--1--0--0--------|
--0----------------|--1--1--5--5--------------5--5--3--3--1--1--3--3--|
-------------------|--------------------------------------------5--5--|
-------------------|--------------------------------------------------|

--------------------------------------------------||
--------------------------------------------------||
--------0--0--3--3--1--1--0--0--------------------||
--1--1--1--1--5--5--3--3--1--1--3--3--1--1--3--3--||
--3--3--------------------------5--5--3--3--5--5--||
--------------------------------------------------||

|-------------------|--1----------------||
|--3----------------|--1----------------||
|--3----------------|--2----------------||
|--3----------------|--3----------------||
|--1----------------|--3----------------||
|-------------------|--1----------------||

Go to [A]
Bas section.

E||-----------|--------------------------|------------------------------|
B||--3--------|--3----3------------------|------------------------------|
G||--2--------|--2----2------------------|------------------0-----------|
D||--0--------|--0----0------1---0---1---|--0---0---0-----------4---1---|
A||-----------|--------------------------|------------------------------|
E||-----------|--------------------------|------------------------------|

------------------------------|------------------------------------|
--3------3--------------------|--------------3----------------3----|
--2------2--------------------|--------------2----------------2----|
--0------0--0-----1---0-------|--------------0----------------0----|
-----0--------------------1---|--0--0--0--0-------0--0--0--0-------|
------------------------------|------------------------------------|

|----------------------------|-----------------------------|
|----3----3------------------|----------3------------------|
|*--2----2------------------|----------2------0-----------|
|*--0----0------1---0---1---|--0---0---0----------4---1---|
|----------------------------|-----------------------------|
|----------------------------|-----------------------------|

                              repeat
----------------------------|-------------------------------------||
--3------3------------------|--------------3----------------3-----||
--2------2------------------|--------------2----------------2--**-||
--0--0---0------1---0-------|--------------0----------------0--**-||
------------------------1---|--0--0--0--0-------0--0--0--0--------||
----------------------------|-------------------------------------||

   intrelude
E||--------------------|----------------------|--------------------|
B||--------------------|------/8----7---------|--------------------|
G||--7----------8------|--7--------------8----|--7-----------------|
D||--------------------|----------------------|-------------8------|
A||--------------------|----------------------|--------------------|
E||--------------------|----------------------|--------------------|

-------------------|--------------------|----------------------|
-------------------|--------------------|------/8----7---------|
-------------------|--7----------8------|--7--------------8----|
--7----------------|--------------------|----------------------|
-------------------|--------------------|----------------------|
-------------------|--------------------|----------------------|

--------------------|-------------------|--------------------|
--------------------|-------------------|--------------------|
--7-----------------|-------------------|--7----------8------|
-------------8------|--7----------------|--------------------|
--------------------|-------------------|--------------------|
--------------------|-------------------|--------------------|

----------------------|--------------------|-------------------|
------/8----7---------|--------------------|-------------------|
--7--------------8----|--7-----------------|-------------------|
----------------------|-------------8------|--7----------------|
----------------------|--------------------|-------------------|
----------------------|--------------------|-------------------|

--------------------|----------------------|--------------------|
--------------------|------/8----7---------|--------------------|
--7----------8------|--7--------------8----|--7-----------------|
--------------------|----------------------|-------------8------|
--------------------|----------------------|--------------------|
--------------------|----------------------|--------------------|

-------------------||
-------------------||
-------------------||
--7----------------||
-------------------||
-------------------||

SOLO

E||----------------------------------|------------------------|
B||------------------------------10--|--11--------10----------|
G||----------------------10--12------|------------------12----|
D||----------10--12--13--------------|------------------------|
A||----------------------------------|------------------------|
E||----------------------------------|------------------------|

--------------------------|----------------------|----------------------------|
--10----------------10----|--11------------10----|----------------10--11--13--|
--------------10----------|----------------------|--15--------12--------------|
--------10----------------|----------------------|----------------------------|
--------------------------|----------------------|----------------------------|
--------------------------|----------------------|----------------------------|

----------13----------------|-----------------------------|
--13----------13------13-11-|--13------13-11-13-10--------|
----------------------------|-----------------------------|
----------------------------|-----------------------------|
----------------------------|-----------------------------|
----------------------------|-----------------------------|

-----------------------10-12-13-15-13-------------|
------------10--11-13-----------------16-15-16-18-|
-----10-14----------------------------------------|
--14----------------------------------------------|
--------------------------------------------------|
--------------------------------------------------|

--15----------------15----15-17-18-17-18-20-18-20-22-20-17-18-20-17-18-17-|
-----18-16-15-16-18----18-------------------------------------------------|
--------------------------------------------------------------------------|
--------------------------------------------------------------------------|
--------------------------------------------------------------------------|
--------------------------------------------------------------------------|

----------17-------17----|--17---------------18-17----|
----------------------18-|----------------18-------18-|
-------------------------|----------------------------|
-------------------------|----------------------------|
-------------------------|----------------------------|
-------------------------|----------------------------|

------------20--22--23--22--23--24-24---|------24--24--22--------|
--22----23------------------------------|------------------------|
----------------------------------------|------------------------|
----------------------------------------|------------------------|
----------------------------------------|------------------------|
----------------------------------------|------------------------|

----------------------------------------|
-------------------23----23-20-------18-|
----------------22-------------20-17----|
-------------20-------------------------|
--18------18----------------------------|
----------------------------------------|

-----------------------------------------------------------|
-----------------------------------------------------15-16-|
---17-15----17----15-19-17-15------------------15-17-------|
---------17----17-------------17---------17-19-------------|
---------------------------------20---20-------------------|
------------------------------------22---------------------|

--------------------|--------------------|--------------------||
--18----------------|--17----------------|--16----------------||
--------------------|--------------------|--------------------||
--------------------|--------------------|--------------------||
--------------------|--------------------|--------------------||
--------------------|--------------------|--------------------||

Чтобы оставить комментарий, войдите

После регистрации мы вернём Вас на это же место
Комментарии
face-with-monocle
Если вы немного подождёте, здесь могут появиться комментарии!

Чшшш...

Самые популярные
Вам может понравиться