Alice In Chains logo

Dont Follow Alice In Chains

  • 44
  • Поделиться
  • Транспонировка
    0
  • Размер шрифта
    15
Alice In Chains – Dont Follow
RYTHYM FIG  1
   D            D/F#
----------------2--------------------------2-------------
-------3-----------3--------------3-----------3----------
----------2-----------2--------------2-----------2-------
----0--------0-----------0--------------0-----------0----
---------------------------------------------------------
--------------------------------2------------------------
   pick w/ fingers; let ring

   Gsus2         A
----------------0----------------------------------------
-------3-----------3------------3-p2-----------2---------
----------2-----------2---------------2-----------2------
-------------0-----------0---------------2-----------2---
--------------------------------0-----------0------------
----3----------------------------------------------------

   D            D/F#
----------------2--------------------------2-------------
-------3-----------3--------------3-----------3----------
----------2-----------2--------------2-----------2-------
----0--------0-----------0--------------0-----------0----
---------------------------------------------------------
--------------------------------2------------------------

   Gsus2         A     (end RYTHYM FIG 1)
----------------0----------------------------------------
-------3-----------3------------3-p2-----------2---------
----------2-----------2---------------2-----------2------
-------------0-----------0---------------2-----------2---
--------------------------------0-----------0------------
----3----------------------------------------------------

VERSE 1 - w/ RYTHYM FIG  1 (three times)
Hey, I ain't never coming home
Hey, I'll just wander my own road
Hey, I can't meet you here tomorrow

CHORUS:
Say goodbye don't follow
   Gadd9
----------------3-------------------------3-------------
-------------------3-------------------------3----------
-------0--------------0----------0--------------0-------
----------0--------------0----------0--------------0----
--------------------------------------------------------
----3--------3-----------------3-------3----------------

              misery so hollow
   A
---------------------------------------------------------
---3-p2-----------2---------3--p2-----------2------------
---------2-----------2-------------2-----------2---------
------------2-----------2-------------2-----------2------
---0-----------0------------0------------0-----------0---
---------------------------------------------------------

RYTHYM FIG  1

VERSE 2 - w/ RYTHYM FIG  1 (three times)
Hey, you, you're living life full throttle
Hey, you, pass me down that bottle
Hey, you, you can't shake me 'round now

CHORUS:
Get so lost and don't know how
Yeah, it hurts to carry
  on now
  D
--2--------------------------
--3--------------------------
--2--------------------------
--0--------------------------
-----------------------------
-----------------------------
  let ring

RYTHYM FIG  2            play 4x (end RYTHYM FIG  2)
  A             D      Dsus4 D
---------------------------------------2---2--2---2---2--2--0--2--2--2--
--2---2--2----2----2---2----2--2--2----3---3--3---3---3--3--3--3--3--3--
--2---2--2----2----2---2----2--2--2----2---2--2---2---2--2--2--2--2--2--
--2---2--2----2----2---2----2--2--2----0---0--0---0---0--0--0--0--0--0--
--0---0--0----0----0---0----0--0--0-------------------------------------
------------------------------------------------------------------------

VERSE 3 - w/ RYTHYM FIG  2 (two times)
Forgot my woman, lost my friends
Things I'd done and where I'd been
Sleep in sweat, the mirror's cold
See my face, it's growing old
Scared to death, no reason why
Doing whatever to get me by
Think about the things I've said
Read the page it's cold and dead
And take me home
Yeah, take me home
Take me home
Take me home, yeah   take me
  home         yeah
  A
-----------------------------
--2--------------------------
--2--------------------------
--2--------------------------
--0--------------------------
-----------------------------
  let ring

OUTRO:
   Gadd9        A
----------------3---------------------------------------
-------------------3----------3-p2-----------2----------
-------0--------------0-------------2-----------2-------
----------0--------------0-------------2-----------2----
------------------------------0-----------0-------------
----3--------3------------------------------------------
   Gadd9
----------------3-------------------------3-------------
-------------------3-------------------------3----------
-------0--------------0----------0--------------0-------
----------0--------------0----------0--------------0----
--------------------------------------------------------
----3--------3-----------------3-------3----------------
                  say goodbye don't
   A
---------------------------------------------------------
----3-p2-----------2------------3-p2-----------2---------
----------2-----------2---------------2-----------2------
-------------2-----------2---------------2-----------2---
----0-----------0---------------0-----------0------------
---------------------------------------------------------
  follow.
  D
--2---------------------------------
--3---------------------------------
--2---------------------------------
--0---------------------------------
------------------------------------
------------------------------------
  let ring

Чтобы оставить комментарий, войдите

После регистрации мы вернём Вас на это же место
Комментарии
face-with-monocle
Если вы немного подождёте, здесь могут появиться комментарии!

Чшшш...