Loading...
Zombie Rob logo

Living Dead Girl Zombie Rob

  • 0
  • Share
  • Transposing
    0
  • Font Size
                      Living Dead Girl - Rob Zombie
This song's easy once you get the hang of it. just a bunch of repeated
Stuff.
Hopefully you can follow my transcription. its in drop-d.
Tony helvey ([email protected])

Intro

G---||--------------------------------------------------------------------
D---||*-------------------------------------------------------------------
A---||*-------------------------------------------------------------------
D---||---4--4--4-----4--4--2--2-----4--4--4-----4--4--2--2-----4--4--4----

1st ending 2nd ending
G------------------|-----------------------------||-----------------------|
D------------------|----------------------------*||-----------------------|
A------------------|---0--0--0-----0--0---------*||-----------------------|
D------4--4--2--2--|---------------------2--2----||-5--5--5----5--5--4--4-|

Instrumental Break (What are you thinking about...)
G-------------------------------------------------------------------------
D-------------------------------------------------------------------------
A----------------------(REST)---------------------------------------------
D-------------------------------------------------------------------------

Verse #1
G-----------------------------------------------------------------------
D-----------------------------------------------------------------------
A-----------------------------------------------------------------------
D--4--4------------------4--4-------------4--4--3--0--3--4--4--3--0-----

G-----------------------------------------------------------------------
D-----------------------------------------------------------------------
A-----------------------------------------------------------------------
D--4--4--3--0--3---(REST)-----------------------------------------------

Chorus (Prowl on me..)

(SAME AS INTRO)

Instrumental Break (What are you think about...)

(REST)

Verse #2

(SAME AS VERSE #1)

Chorus (Prowl on me..)

(SAME AS INTRO)

Verse #3

(SAME AS VERSE #1)

Chorus (Prowl on me..)

(SAME AS INTRO)

Keep playing this till song stops

========================================================================
== TABLATURE EXPLANATION ==
========================================================================

---------- ---------- ----t---
----5h8--- Hammeron ----(8)--- Ghost ----6--- Tap
---------- ---------- Note --------
----5p8--- Pulloff ---------- --------

---------- ---------- -----p--
----5/8--- Slide Up -----x---- Dead -----7-- Pop
---------- ---------- Note --s-----
----58--- Slide Down ---------- --5----- Slap

---------- ||------|| Repeat --------
----5~~~-- Vibrato ||*----*|| ---5^--- Bend
---------- ||*----*|| --------
---------- ||------|| --------

---------- ---------- --------
-4:------- Time ---------- --------
-4:------- Signature ---------- --------
---------- ---------- --------

Rhythm:
w = whole note W = dotted whole
h = half note B = dotted half
q = quarter note Q = dotted quarter
e = eighth note E = dotted eighth
s = sixteenth note S = dotted sixteenth
t = 32nd note T = dotted 32nd
x = 64th note X = dotted 64th
^ = triplet

========================================================================

Log In to leave a comment

After registration we will return you to the same place
Comments
face-with-monocle
If you wait a bit, some comments may appear here...

Shhh...