Zappa Frank logo

Filthy Habits Zappa Frank

  • 0
  • Share
  • Transposing
    0
  • Font Size
Zappa Frank – Filthy Habits
A section (basic riff) (not 10th time)
(x10) V
||---------------------------------------------------------------------||
5||.-----------------------------------------------------3-----------3-.||4
4||.---------------------------4-------------3-------------------------.||4
||---1----------2------------------------------------------------------||
||---------------------------------------------------------------------||

B section (fiddly bit)
V----3----v v----3----v v----3----v v-----5------v
|------------------------------------------------------------------|
4|------------------------------------------------------------------|3
4|--8--8-10-8-6----8--8-10-8-6----8--8-10-8-6----8--6--8--10--6-----|4
|------------------------------------------------------------------|
|------------------------------------------------------------------|

V------5------v v-----5-----v v-----5-----v
|-----------------------------------------------------| |---------------|
3|--10--8--8--8--10----6--6--8--6--5----5--5--6--5-----| 4|---------------|
4|--------------------------------------------------7--| 4|-8-------------|
|-----------------------------------------------------| |---------1---3-|
|-----------------------------------------------------| |---------------|

(x4)
|----------------------| ||-------------------------------------------||
4|----------------------| 5||.-----------------------------------------.||
4|----------------------| 4||.-----------------------------------------.||
|---4-----------6------| ||-------------------------------------------||
|----------------------| ||---2-------2---2--------2----2---/-8-\\-----||
S s

C section (guitar solo)
(x ?)
||----------------------------------------------------------------------||
5||.--------------------------------------------------------------------.||
4||.-----------------------------------------------------3------------3-.||
||---------------------------4-------------3----------------------------||
|------------------------------------------------------------------------|
||----1----------2------------------------------------------------------||

D section (fiddly bit again)
V----3----v v----3----v v----3----v v-----5------v
|------------------------------------------------------------------|
4|------------------------------------------------------------------|3
4|--8--8-10-8-6----8--8-10-8-6----8--8-10-8-6----8--6--8--10--6-----|4
|------------------------------------------------------------------|
|------------------------------------------------------------------|

V------5------v v-----5-----v v-----5-----v
|-----------------------------------------------------| |---------------|
3|--10--8--8--8--10----6--6--8--6--5----5--5--6--5-----| 4|---------------|
4|--------------------------------------------------7--| 4|-8-------------|
|-----------------------------------------------------| |---------1---3-|
|-----------------------------------------------------| |---------------|

V----3----v v----3----v v----3----v v-----5------v
|----------|------------------------------------------------------------|
4|----------|------------------------------------------------------------|3
4|----------|--8--8-10-8-6---8--8-10-8-6---8--8-10-8-6---8--6--8--10--6--|4
|-4---6----|------------------------------------------------------------|
|----------|------------------------------------------------------------|

V------5------v v-----5-----v v-----5-----v
|-----------------------------------------------------| |---------------|
3|--10--8--8--8--10----6--6--8--6--5----5--5--6--5-----| 4|---------------|
4|--------------------------------------------------7--| 4|-8-------------|
|-----------------------------------------------------| |---------2---4-|
|-----------------------------------------------------| |---------------|

|---------------------|--------------||
4|---------------------|--------------||
4|--------------3------|--(3)---------||
|----6----------------|--------------||
|---------------------|--------------||

Alternate fingering for 4 strings

B section (bar 5) C section (guitar solo vamp)
(x4)
||---------------------------|| ||------------------------5------5-||
5||.-------------------------.|| 5||.-----------4-----3-------------.||
4||.-4----4-4-----4-4--/10\\--.|| 4||.-3----4------------------------.||
||---------------------------|| ||---------------------------------||

Log In to leave a comment

After registration we will return you to the same place
Comments
face-with-monocle
If you wait a bit, some comments may appear here...

Shhh...