Loading...
Wishbone Ash logo

Outward Bound Wishbone Ash

  • 0
  • Share
  • Transposing
    0
  • Font Size
Outward Bound by Wishbone Ash
From the album New England

Transcribed by Rob Watson [email protected]

Dm C G
( four times )
E|------------------|----------|12h13----12h13-12---------|----------------|
B|------------------|----------|------15----------15-13---|13----13-15-----|
G|2-2-2-------------|2-2-2-----|------------------------14|---14-------12--|
D|0-0-0-----3p0-----|0-0-0-----|--------------------------|----------------|
A|------0h3-----3p0-|----------|--------------------------|----------------|
E|------------------|----------|--------------------------|----------------|

Dm C G
(ph)
E|----------------------|---------------|12h13----12h13-12---------|---------15------|
B|----------------------|----------s15--|------15----------15-13---|13----13----12-12|
G|12b14r12-10---------10|12b14r12-------|------------------------14|---14------------|
D|------------12---12---|---------------|--------------------------|-----------------|
A|----------------------|---------------|--------------------------|-----------------|
E|----------------------|---------------|--------------------------|-----------------|

Dm F Gm A# A# A# C/G
bass A F
E|---------------|----------------|-------------------|------------|------------------|------10|
B|----------s15--|----------s15-10|13-10-13-(13b15)r13|------------|13----13-(13pb15)r|13------|
G|12b14r12-------|12b14r12--------|-------------------|10--------14|---14-------------|--------|
D|---------------|----------------|-------------------|------------|------------------|--------|
A|---------------|----------------|-------------------|------------|------------------|--------|
E|---------------|----------------|-------------------|------------|------------------|--------|
|gtr 2 | | | | | |
E|---------------|----------------|-------------------|------------|12----12-(12pb13)r|12----13|
B|---------------|----------------|10----10-(10b11)r10|----------13|---13-------------|--------|
G|---------------|--------------10|---10--------------|------------|------------------|--------|
D|---------------|----------------|-------------------|10----------|------------------|--------|
A|---------------|----------------|-------------------|------------|------------------|--------|
E|---------------|----------------|-------------------|------------|------------------|--------|

F Gm A# Am F D5

E|12b13r12-10-10b12r10-8-|-8b10r8--5----------|---------------|-------------------------|
B|-----------------------|------------8---8s6-|8-8s6-8----8b10|8b10r8-6---------------10|
G|-----------------------|--------------------|---------------|-------------------------|
D|-----------------------|--------------------|---------------|-------------------------|
A|-----------------------|--------------------|---------------|-------------------------|
E|-----------------------|--------------------|---------------|-------------------------|
|gtr2 | | | |
E|15b17r15-13-13b15r13-12|12b13r12-10---------|---------------|-------------------------|
B|-----------------------|------------13-13s10|12-10-12--12b13|12p10--------------------|
G|-----------------------|--------------------|---------------|------10---------------10|
D|-----------------------|--------------------|---------------|-------------------------|
A|-----------------------|--------------------|---------------|-------------------------|
E|-----------------------|--------------------|---------------|-------------------------|

F Gm A# A# A# C/G

E|-------------------|------------|----------------------|------10|
B|13-10-13-(13b15)r13|------------|13----13--13b15r13b15r|13------|
G|-------------------|10--------14|---14-----------------|--------|
D|-------------------|------------|----------------------|--------|
A|-------------------|------------|----------------------|--------|
E|-------------------|------------|----------------------|--------|
|gtr 2 | | | |
E|-------------------|------------|12----12--12b13r12b13r|12----13|
B|10----10-(10b11)r10|10--------13|---13-----------------|--------|
G|---10--------------|------------|----------------------|--------|
D|-------------------|------------|----------------------|--------|
A|-------------------|------------|----------------------|--------|
E|-------------------|------------|----------------------|--------|

F Gm A# Am F Dm

E|12b13r12-10-10b12r10-8-|-8b10r8--5----------|8b10-----------|
B|-----------------------|------------8--6----|---------------|
G|-----------------------|------------------7-|---------------|
D|-----------------------|--------------------|---------------|
A|-----------------------|--------------------|---------------|
E|-----------------------|--------------------|---------------|
| gtr2 | | |
E|15b17r15-13-13b15r13-12|12b13r12-10---------|12b13----------|
B|-----------------------|------------13-10---|---------------|
G|-----------------------|------------------10|---------------|
D|-----------------------|--------------------|---------------|
A|-----------------------|--------------------|---------------|
E|-----------------------|--------------------|---------------|

Log In to leave a comment

After registration we will return you to the same place
Comments
face-with-monocle
If you wait a bit, some comments may appear here...

Shhh...

Most Popular
You Might Like