Wipers logo

Lets Go Away Wipers

  • 0
  • Share
  • Font Size
Wipers – Lets Go Away
LET'S GO AWAY (Props go to John Sixkiller)

Intro and Interlude:
E--------------------------------------------------------------------
B----------------------------------------------------5-5-5-5-5-5-5-5-
G----------------------------------------------------6-7-6-7-6-7-6-7-
D--2-2-4-4-5-5-6-6-7-7-7-7-7-7-7-7-7-7-7-7-7-7-7-7---7-7-7-7-7-7-7-7-
A--2-2-4-4-5-5-6-6-7-7-7-7-7-7-7-7-7-7-7-7-7-7-7-7-------------------
E--------------------------------------------------------------------

Verse:
E------------------------------------------------------------------
B-- /12---------------------------------------------5-5-5-5-5-5-5-5-
G-- /13---------------------------------------------6-7-6-7-6-7-6-7-
D-- /14---------------------------------------------7-7-7-7-7-7-7-7-
A------------------------------------------------------------------
E------------------------------------------------------------------
Stuck in the pits of Cape Coral really gave me the blues...

Bridge:
E-------
B--/10--
G--/11--
D--/12--
A-------
E-------
There's got to be a better place there's go to be...

E-------------------------------------------
B-------------------12-12-12-12-12-12-12-12-
G-------------------13-15-13-15-13-15-13-15-
D-------------------14-14-14-14-14-14-14-14-
A-------------------------------------------
E-------------------------------------------
So let's get on the move

Chorus: (3x)
E----------------------------------------------------
B-----5-5-5--5-5-5--3-3-3-3--3-x-3-x-3-x-3-x-3-x-3-x-
G-----6-7-6--6h7p6--4-5-4-4--4-x-4-x-4-x-4-x-4-x-4-x-
D-----7-7-7--7-7-7--5-5-5-5--5-x-5-x-5-x-5-x-5-x-5-x-
A----------------------------------------------------
E----------------------------------------------------
Let's go... Let's go away...

(Interlude)

Solo/Outro:
E-------------------------------------------------------------------------
B-----12-12-12-12-12-12-------12-11-10---------5-5-5-5-5-------5-5-5-5-5--
G-----13-13-13-13-13-13-------13-12-11---------6-6-6-6-6-------6-6-6-6-6--
D-----14-14-14-14-14-14-------14-13-12---------7-7-7-7-7-------7-7-7-7-7--
A-------------------------------------------0---------------0-0-----------
E--0---------------------0-0-----------0-0--------------------------------

Stuck in the pits of Cape Coral really gave me the blues
Being stuck in one place to long makes me itchy to groove
There's gotta be a better place there's got to be
So let's get on the move

Let's go (5x)
Let's go away

No matter wherever I go the scene's always the same
I gotta find a new world before I start goin' insane
There's gotta be a better place there's got to be
So let's get on the move

Let's go (5x)
Let's go away
Let's go (5x)
Let's go away

Log In to leave a comment

After registration we will return you to the same place
Comments
face-with-monocle
If you wait a bit, some comments may appear here...

Shhh...

Most Popular
You Might Like