White Stripes logo

Youre Pretty Good Looking White Stripes

  • 0
  • Share
  • Font Size
White Stripes – Youre Pretty Good Looking
White stripes
You're pretty good looking (for a girl)
Album: de stilj
Submitted by m. burgess

Intro:

----------------------------------------------------
----------------------------------------------------
--4-4------4-4-2-4-4-4-2/4-4-4-4---4-4-4---------4--
--4-4--4-4-4-4-2-4-4-4-2/4-4-4-4-4-4-4-4-4-4-4-2-4--
--2-2--0-0-2-2-2-2-2-2-2-2-2-2-2-0-2-2-2-4-4-4-2-2--
-----------------------------------------2-2-2------

Play twice with first ending after each, then once with second ending:

---------------------------------------------------------------------------
---------------------------------------------------------------------------
--4-4-2/4-4-4-------------4-4-2/4-4-4--4-4-2/4-4-4--4-4-2/4-4-4------------
--4-4-2/4-4-4--2-2-4-4-4--4-4-2/4-4-4--4-4-2/4-4-4--4-4-2/4-4-4--2-2-4-4-4-
--2-2-2-2-2-2--2-2-4-4-4--2-2-2-2-2-2--2-2-2-2-2-2--2-2-2-2-2-2--2-2-4-4-4-
---------------0-0-2-2-2-----------------------------------------0-0-2-2-2-

First ending:

----------------
----------------
----------------
--4-4--2-2-2--4-
--2-2--2-2-2--4-
-------0-0-0--2-

Second Ending:

----------------
----------------
--4-4-------2-4-
--4-4-4-4-4-2-4-
--2-2-4-4-4-2-2-
------2-2-2-----

Bridge:

-----------------------------------------
-----------------------------------------
--4-3-4-5-6-7-8--8-8-8-8-8-8-8-8-8-8-8-8-
--4-3-4-5-6-7-8--8-8-8-8-8-8-8-8-8-8-8-8-
-----------------6-6-6-6-6-6-6-6-6-6-6-6-
-----------------------------------------

------------------------------------------------------------------
------------------------------------------------------------------
------------------------------------------------------------------
----------------------------------6-6-6-6-6-6-6-6-6-6-6-6-6-6-6-6-
-6-6-6-6-6-6-6-6-6-6-6-6-6-6-6-6--4-4-4-4-4-4-4-4-4-4-4-4-4-4-4-4-
-4-4-4-4-4-4-4-4-4-4-4-4-4-4-4-4----------------------------------

---------------------
---------------------
---------------------
-2-2-2-2-2-2-2-2--4--
-2-2-2-2-2-2-2-2--4--
-0-0-0-0-0-0-0-0--2--

Back to...

---------------------------------------------------------------------------
---------------------------------------------------------------------------
--4-4-2/4-4-4-------------4-4-2/4-4-4--4-4-2/4-4-4--4-4-2/4-4-4------------
--4-4-2/4-4-4--2-2-4-4-4--4-4-2/4-4-4--4-4-2/4-4-4--4-4-2/4-4-4--2-2-4-4-4-
--2-2-2-2-2-2--2-2-4-4-4--2-2-2-2-2-2--2-2-2-2-2-2--2-2-2-2-2-2--2-2-4-4-4-
---------------0-0-2-2-2-----------------------------------------0-0-2-2-2-

With first ending:

----------------
----------------
----------------
--4-4--2-2-2--4-
--2-2--2-2-2--4-
-------0-0-0--2-

And again to:

---------------------------------------------------------------------------
---------------------------------------------------------------------------
--4-4-2/4-4-4-------------4-4-2/4-4-4--4-4-2/4-4-4--4-4-2/4-4-4------------
--4-4-2/4-4-4--2-2-4-4-4--4-4-2/4-4-4--4-4-2/4-4-4--4-4-2/4-4-4--2-2-4-4-4-
--2-2-2-2-2-2--2-2-4-4-4--2-2-2-2-2-2--2-2-2-2-2-2--2-2-2-2-2-2--2-2-4-4-4-
---------------0-0-2-2-2-----------------------------------------0-0-2-2-2-

And end with:

---------------------
---------------------
--4-4-------4--4-4-4-
--4-4-4-4-4-4--4-4-4-
--2-2-4-4-4-2--2-2-2-
------2-2-2----------

Log In to leave a comment

After registration we will return you to the same place
Comments
face-with-monocle
If you wait a bit, some comments may appear here...

Shhh...