White Stripes logo

St Ides Of March White Stripes

  • 0
  • Share
  • Font Size
White Stripes – St Ides Of March
-------------------------------------------------------------------------------
ST. IDES OF MARCH - The White Stripes
-------------------------------------------------------------------------------
Tabbed by: Aaron Heinemann
Email: [email protected]

Tuning: Normal

The B-Side from Hardest Button To Button single. Excellent song.
You'll have to listen to it to get the rhythm.

Fig. 1
E|---------------------------------------------|
B|---------------------------------------------|
G|--2---2---2---1---2---4---2---0--------------|
D|----------------------------------2---0---2--|
A|---------------------------------------------|
E|---------------------------------------------|

1. Oh, ain't she looking good...
2. Sweet potato pie...

Fig.2
E|---------------------------------------------------------|
B|--------------------555555555555---8888888---3---3---0---|
G|-2--2--2--1-2-1-2-1-555555555555---8888888---3---3---0---|
D|--------------------555555555555---8888888---3---3---0---|
A|--------------------333333333333---6666666---1---1---0---|
E|---------------------------------------------------------|

Fig.3
E|------------------------------------------------0---|
B|------------------------------------------------0---|
G|---2--4--2--0-----------------------------0-----0---|
D|---------------2--0-----0-----0-----0-----------2---|
A|---------------------2-----2--------------------0---|
E|---------------------------------3-----2--------0---|

The Song:

Fig.1 x2

Fig.1
Oh, ain't she lookin' good.
Ain't she lookin' fine.
Ain't she lookin' fine,
And she takes her time,
Don't you walk away.

Fig.1 (bit louder)
Sweet potato pie,
Sweet sugar plum,
Sweet sugar plum,
Look at what you done,
Don't you walk away.

Fig.2 x2

Repeat as desired. The song ends with fig.3.

Log In to leave a comment

After registration we will return you to the same place
Comments
face-with-monocle
If you wait a bit, some comments may appear here...

Shhh...