Loading...
White Stripes logo

Seven Nation Army White Stripes

  • 0
  • Share
  • Transposing
    0
  • Font Size
Tuning: B A E A C# e

Verse Riff:
E |--------------------|
C#|--------------------|
A |--------------------| x 12
E |--------------------|
A |--------------------|
B |-5--5-8--5--3--1--0-|

Lead in to (and lead out of) chorus:
E |-----------------|-0-0-0-0-0-0-0-0-|
C#|-----------------|-0-0-0-0-0-0-0-0-|
A |-----------------|-0-0-0-0-0-0-0-0-|
E |-5-5-5-5-5-5-5-5-|-0-0-0-0-0-0-0-0-|
A |-5-5-5-5-5-5-5-5-|-0-0-0-0-0-0-0-0-|
B |-8-8-8-8-8-8-8-8-|-----------------|

Chorus (play with bottleneck slide):
E |-----------------|------------------------|
C#|-7--7-10-7-5-3-2-|-7--7-10-7-5-3-5-3-2--0-|
A |-7--7-10-7-5-3-2-|-7--7-10-7-5-3-5-3-2--0-|
E |-7--7-10-7-5-3-2-|-7--7-10-7-5-3-5-3-2--0-| x 2
A |-7--7-10-7-5-3-2-|-7--7-10-7-5-3-5-3-2--0-|
B |-----------------|------------------------|

Log In to leave a comment

After registration we will return you to the same place
Comments
face-with-monocle
If you wait a bit, some comments may appear here...

Shhh...