Loading...
White Stripes logo

Screwdriver White Stripes

  • 0
  • Share
  • Transposing
    0
  • Font Size
Band: The White Stripes
Song: Screwdriver
Submitted by: Thom

STANDARD TUNING (EADGBe)

/: Slide down
: Slide up
B: Bend
.: Play the note and damp it fast with your palm

INTRO
E|---------------------------------------------------------------|------------------------|
B|------------------13b15-13-15-13-15b17-15-13-15-13-------------|------------------------|
G|----------------------14--------------------------14-(times 2)-|------------------------|
D|-7-7-7-7/5-57-7-----------------------------------------------|-7-7-7-7/5-57-7--7-7-7-|
A|-7-7-7-7/5-57-7-----------------------------------------------|-7-7-7-7/5-57-7--7-7-7-|
E|-5-5-5-5/3-35-5-----------------------------------------------|-5-5-5-5/3-35-5--5-5-5-|

CHORUS/VERSE
E|------------------|
B|------------------|
G|------------------| x5
D|--7~-7-7/5~-5-5--|
A|--7~-7-7/5~-5-5--|
E|--5~-5-5/3~-3-3--|

E|---------------------------------------------------------------|------------------------|
B|------------------13b15-13-15-13-15b17-15-13-15-13-------------|------------------------|
G|----------------------14--------------------------14-(times 2)-|------------------------|
D|-7-7-7-7/5-57-7-----------------------------------------------|-7-7-7-7/5-57-7--7-7-7-|
A|-7-7-7-7/5-57-7-----------------------------------------------|-7-7-7-7/5-57-7--7-7-7-|
E|-5-5-5-5/3-35-5-----------------------------------------------|-5-5-5-5/3-35-5--5-5-5-|

CHORUS/VERSE
E|------------------|
B|------------------|
G|------------------| x5
D|--7~-7-7/5~-5-5--|
A|--7~-7-7/5~-5-5--|
E|--5~-5-5/3~-3-3--|

INTERLUDE
E|------------------------------------------------------------------|
B|----------------------------------13b16-------15b17-15-13-15-13---|
G|---------------------------------------------------------------14-|
D|7-----------7-7-7---7-7-7---7-7-7-------7-7-7---------------------|
A|7 (times 8)-7-7-7---7-7-7---7-7-7-------7-7-7---------------------|
E|5-----------5-5-5---5-5-5---5-5-5-------5-5-5---------------------|
Palm Mute . . . . . . . . . . . .

E|----------------------------------------------------|
B|------------------13b15-13-15-13-15b17-15-13-15-13--|
G|----------------------14--------------------------14|
D|-7-7-7-7/5-57-7------------------------------------|
A|-7-7-7-7/5-57-7------------------------------------|
E|-5-5-5-5/3-35-5------------------------------------|

E|-------------------------|
B|-------------------------|
G|-------------------------|
D|-7-7-7-7/5-57-7--7-7-7--|
A|-7-7-7-7/5-57-7--7-7-7--|
E|-5-5-5-5/3-35-5--5-5-5--|

CHORUS/VERSE
E|------------------|
B|------------------|
G|------------------| x5
D|--7~-7-7/5~-5-5--|
A|--7~-7-7/5~-5-5--|
E|--5~-5-5/3~-3-3--|

OUTRO
E|---------------------|-------------------------------------------------------------|---------------|
B|---------------------|-----------------13b15-13-15-13-15b17-15-13-15-13------------|---------------|
G|---------------------|---------------------14--------------------------14-(times 2)|---------------|
D|7--------------------|7-7-7-7/5-57-7----------------------------------------------|7-7-7--7-7-7--7|
A|7-(Repeat Many times)|7-7-7-7/5-57-7----------------------------------------------|7-7-7--7-7-7--7|
E|5--------------------|5-5-5-5/3-35-5----------------------------------------------|5-5-5--5-5-5--5|
Palm Mute . . . . . .

Log In to leave a comment

After registration we will return you to the same place
Comments
face-with-monocle
If you wait a bit, some comments may appear here...

Shhh...