Vines logo

Get Free Vines

  • 0
  • Share
  • Font Size
    15
Vines – Get Free
The Vines - Get Free
Highly Evolved
Tabbed by Sparta

Intro
E|-------------------|         e|-----------|
B|-------------------|         B|-----------|
G|-------------------|         G|-----------|
D|-7-7-7-7-7-7-7--5--|         D|-5---------|
A|-5-5-5-5-5-5-5b-3--| x3 then A|-3-555-----|
E|-------------------|         E|---333-----|

Verse
E|----------------------------------------------|
B|----------------------------------------------|
G|----------------------------------------------|
D|-7777777-5-7777777-5-7777777-5-5-5------------|
A|-5555555-3-5555555-3-5555555-3-3-3-555--------| x2
E|-----------------------------------333--------|
Pm xxxxxxx x xxxxxxx x xxxxxxx x x x xxx

Chorus
E|--------------------------------------|
B|--------------------------------------|
G|--------------------------------------|
D|-57-57-57-----------------------------|
A|-35-35-35-555-66-33-------------------| x4
E|----------333-44-11-------------------|

Solo/after chorus thing
E|-----------------------------------------------|
B|-----------------------------------------------|
G|-----5-7-5-----5-7-5-----5-7-5-9-7-5-2-5-------|
D|---7---------7---------7-----------------------|
A|-5---------5---------5-------------------------| x2
E|-----------------------------------------------|

Verse
Chorus

Bridge
E|--------------------------------------------------------------------------------|
B|--------------------------------------------------------------------------------|
G|--------------------------------------------------------------------------------|
D|---------6-6-8-8---------3-3-5-5---------6-6-8-8---------3-3-5-5---------3-3-5-5|
A|-----8-8-------------5-5-------------8-8-------------5-5-------------5-5--------|
E|-6-6-------------3-3-------------6-6-------------3-3-------------3-3------------|

Intro
Verse
Chorus

| /  slide up
|   slide down
| h  hammer-on
| p  pull-off
| ~  vibrato
| +  harmonic
| x  Mute note

Log In to leave a comment

After registration we will return you to the same place
Comments
face-with-monocle
If you wait a bit, some comments may appear here...

Shhh...