Loading...
Vines logo

Autumn Shade Ii Vines

  • 0
  • Share
  • Transposing
    0
  • Font Size
-----------------------------------------------------------------------
The Vines - Autumn Shade 2
-----------------------------------------------------------------------
Tabbed by: Pascal M Frenette
Email: [email protected]
Tuning : EADGBe (Standard)

That's the best I could do for the intro/verse.
But like always, just play around that...
C G Em A
E|-------------3-(3)---0-------0------|
B|-----1--0---------------0h2-----0h1-|
G|-----0-----------------------2------|
D|---2—--2-----0-------2-----2---2----|
A|-3---------2---2---2---2--0---------|
E|---------3-------0------------------|

C G Em A C
Look through me because I am a transparent
G Em A C
Ought to know me but why even know yourself
G Em A C
I'm beginning to need all that I can't have
G Em A C G
I'm succeeding to speak like I'm fucking mad

Em C G
Looking at the Autumn Shade
You are white and I am grey
Em C G Em
Looking at the Autumn Shade, oh yeah

Look through me because I am a transparent
Ought to know me but why even know yourself
I'm beginning to need all that I can't have
I'm succeeding to speak like I'm fucking mad

Looking at the Autumn Shade
You are white and I am grey
Looking at the Autumn Shade, oh yeah

C G Em A C G Em A
C G Em A
Oooooh ooh ooh woo-oooooh ooh ooooh
Oooooh ooh ooh woo-oooooh ooh ooooh
Oooooh ooh ooh woo-oooooh ooh ooooh
La lala la la la
Oooooh ooh ooh woo-oooooh oooooh wooooooooooh
-----------------------------------------------------------------------

Solo over second chorus
|------------------------------------------------------|
|------------------------------------------------------|
|--9-9-9-9/12br11-9~~~~-7------------------------------|
|-------------------------10-9-7-9~-12~-9~~-10~~-9~~~~-|
|------------------------------------------------------|
|------------------------------------------------------|

|------------------------------------------------------|
|------------------------------------------------------|
|-9-9-9-9/12/14~-14-12-9~~~~-----9~~~~~~~into feedback-|
|----------------------------7br-----------------------|
|------------------------------------------------------|
|------------------------------------------------------|

Log In to leave a comment

After registration we will return you to the same place
Comments
face-with-monocle
If you wait a bit, some comments may appear here...

Shhh...

Most Popular
You Might Like