Loading...
Виктор Цой logo

Красно-желтые дни Виктор Цой

  • 0
  • Share
  • Transposing
    0
  • Font Size
Перед вступлением:
E|------------------------------------------|
B|------------------------------------------|
G|------------------------------------------|
D|--------------------3--2-----2-3-2--------|
A|--0-----0--3-----3--------5------------3--|
E|-----0--------3---------------------3-----|

Вступление+Соло в куплете:
E|--------------------------------|-----------------2--------------|
B|-----------------3-----2--------|-----3-----3-----------5-----3--|
G|----4-----4------------------4--|--2-----2-----2-----2-----2-----|
D|-4-----4-----4-----4-----4------|--------------------------------|
A|--------------------------------|--------------------------------|
E|--------------------------------|--------------------------------|

E|-----------------7-----5------------10------10~~~~~----------------|
B|-----8-----8---------------------10------10~~~~~~~~----------------|
G|--7-----7-----7-----7-----7----------------------------------------|
D|-------------------------------------------------------------------|
A|-------------------------------------------------------------------|
E|-------------------------------------------------------------------|

Вступление (аккорды): Bm F#m Bm | D A D
G F#m Em | D A D

Bm G
Застоялся мой поезд в депо.
A G A
Снова я уезжаю. Пора...
Bm G
На пороге ветер заждался меня.
A G A
На пороге осень - моя сестра.

Припев:
Bm F#m Bm
После красно-желтых дней
D A D
Начнется и кончится зима.
G F#m Em
Горе ты мое от ума,
D A D
Не печалься, гляди веселей.
Bm F#m Bm
И я вернусь домой
D A D
Со щитом, а, может быть, на щите,
G F#m Em
В серебре, а, может быть, в нищете,
D A D
Но как можно скорей.

Bm G
Расскажи мне о тех, кто устал
A G A
От безжалостных уличных драм
Bm G
И о храме из разбитых сердец
A G A
И о тех, кто идет в этот храм.

Припев:
Bm F#m Bm
После красно-желтых дней
D A D
Начнется и кончится зима.
G F#m Em
Горе ты мое от ума,
D A D
Не печалься, гляди веселей.
Bm F#m Bm
И я вернусь домой
D A D
Со щитом, а, может быть, на щите,
G F#m Em
В серебре, а, может быть, в нищете,
D A D
Но как можно скорей.

Соло: Bm G | A G A | Bm G | A G A
Bm F#m Bm | D A D
G F#m Em | D A D

Bm G
А мне приснилось: миром правит любовь,
A G A
А мне приснилось: миром правит мечта.
Bm G
И над этим прекрасно горит звезда,
A G A
Я проснулся и понял - беда...

Припев:
Bm F#m Bm
После красно-желтых дней
D A D
Начнется и кончится зима.
G F#m Em
Горе ты мое от ума,
D A D
Не печалься, гляди веселей.
Bm F#m Bm
И я вернусь домой
D A D
Со щитом, а, может быть, на щите,
G F#m Em
В серебре, а, может быть, в нищете,
D A D
Но как можно скорей.

Кода: Bm F#m Bm | D A D
G F#m Em | D A D

Log In to leave a comment

After registration we will return you to the same place
Comments
face-with-monocle
If you wait a bit, some comments may appear here...

Shhh...