Victor Jara logo

A Cuba Victor Jara

  • 0
  • Share
  • Transposing
    0
  • Font Size
Victor Jara ‚Äď A Cuba
Intro:
Dm Gm A7
E||---------------------||-------------------12----|--------12--15--13--12--15--|
B||---------------------||-----------15------------|----------------------------|
G||---------------------||*--14--------------------|----------------------------|
D||---------------------||*------------------------|----------------------------|
A||------------0--2--4--||-------------------------|----------------------------|
E||---------------------||-------------------------|----------------------------|

Dm Gm A7
--13--------12-13-15--13--12------|---------------------||
---------15-------------------15--|--14-----------------||
----------------------------------|--------------------*||
----------------------------------|--------------------*||
----------------------------------|---------------------||
----------------------------------|---------------------||
final 1

A7 Dm Gm
----------12------------10--12--|--10------10------------------|
--14--15------13----13----------|--------------13--13--11--11--|
--------------------------------|------------------------------|
--------------------------------|------------------------------|
--------------------------------|------------------------------|
--------------------------------|------------------------------|
final 2

A7 Dm Gm
--------10----8-------------------|--------------------------------|
--10---------------8----6----5----|-------6----5----3----1---------|
----------------------------------|--7------------------------3----|
----------------------------------|--------------------------------|
----------------------------------|--------------------------------|
----------------------------------|--------------------------------|

A7
----------------------|
----------------------|
--2------2------2--2--|
----------------------|
----------------------|
----------------------|

Dm Gm A7
Si yo a Cuba le cantara,
Dm Gm A7
Le cantara una canción,
Dm Gm A7
Tendría que ser un son,
Dm Gm A7... sigue L–ź misma secuencia Dm - Gm - A7
Un son revolucionario,
Pie con pie, mano con mano,
Corazón a corazón,
Corazón a corazón,
Pie con pie, mano con mano,
Como se le habla a un hermano,
Si me quieres, aquí estoy
¬Ņqu√© m√°s te puedo ofrecer
Sino continuar tu ejemplo?
Comandante, compa√Īero,
Dm Gm A7
¡viva tu revolución!

Sin acordes A7
Si quieres conocer a Martí y a Fidel,
D
A Cuba, a Cuba, a Cuba iré
A7
Si quieres conocer los caminos del Che,
D
A Cuba, a Cuba, a Cuba iré
A7
Si quieres tomar ron pero sin Coca Cola,
D
A Cuba, a Cuba, a Cuba iré
A7
Si quieres trabajar en la ca√Īa de az√ļcar,
D
A Cuba, a Cuba, a Cuba iré
A7
En un barquito se va el vaivén,
D
A Cuba, a Cuba, a Cuba iré
A7
Si quieres conocer a Martí y a Fidel.
D
A Cuba, a Cuba, a Cuba iré

Interludio:
A7
----------------5--7--9--|--5------------5--9--|
-------5--7--8-----------|---------------------|
----7--------------------|---------------------|
-------------------------|---------------------|
-------------------------|---------------------|
-------------------------|---------------------|

D
----9----9--9----7--7--|----5--------------|----------------5--7--9--|
-----------------------|-------------------|-------5--7--8-----------|
-----------------------|-------------------|----7--------------------|
-----------------------|-------------------|-------------------------|
-----------------------|-------------------|-------------------------|
-----------------------|-------------------|-------------------------|

A7 D
--5------------5--9--|----7----5-------------|-------------------|
---------------------|------------8----7--5--|-------------------|
---------------------|-----------------------|--7----------------|
---------------------|-----------------------|-------------------|
---------------------|-----------------------|-------------------|
---------------------|-----------------------|-------------------|

A7
----------------5--7--9--|--5------------5--9--|----9----9--12----9--10--|
-------5--7--8-----------|---------------------|-------------------------|
----7--------------------|---------------------|-------------------------|
-------------------------|---------------------|-------------------------|
-------------------------|---------------------|-------------------------|
-------------------------|---------------------|-------------------------|

D A7
----7--------------|----------------5--7--9--|--5------------5--9--|
-------------------|-------5--7--8-----------|---------------------|
-------------------|----7--------------------|---------------------|
-------------------|-------------------------|---------------------|
-------------------|-------------------------|---------------------|
-------------------|-------------------------|---------------------|

D Fin interludio
----7----5-------------|-------------------|----||
------------8----7--5--|-------------------|----||
-----------------------|--7----------------|----||
-----------------------|-------------------|----||
-----------------------|-------------------|----||
-----------------------|-------------------|----||

Dm - Gm - A7 ://

Dm Gm A7
Si yo a Cuba le cantara,
Dm Gm A7
Le cantara una canción,
Dm Gm A7
Tendría que ser un son,
Dm Gm A7 ... sigue L–ź misma secuencia Dm - Gm - A7
Un son revolucionario,
Pie con pie, mano con mano,
Corazón a corazón.
Como yo no toco el son
Pero toco la guitarra,
Que est√° justo en la batalla
De nuestra revolución,
Ser√° lo mismo que el son
Qui hizo bailar a los gringos,
Pero no somos guajiros,
Nuestra sierra es la elección.

Si quieres conocer a Martí y a Fidel,
A Cuba, a Cuba, a Cuba iré
Si quieres conocer los caminos del Che,
A Cuba, a Cuba, a Cuba iré
Si quieres tomar ron pero sin Coca Cola,
A Cuba, a Cuba, a Cuba iré
Si quieres trabajar en la ca√Īa de az√ļcar,
A Cuba, a Cuba, a Cuba iré
En un barquito se va el vaivén,
A Cuba, a Cuba, a Cuba iré
Si quieres concer a Martí y a Fidel.
Si quieres conocer los caminos del Che,
A Cuba, a Cuba, a Cuba iré.... perdiéndose

Log In to leave a comment

After registration we will return you to the same place
Comments
face-with-monocle
If you wait a bit, some comments may appear here...

Shhh...