Venom logo

In Nomne Satanas Venom

  • 0
  • Share
  • Transposing
    0
  • Font Size
Venom – In Nomne Satanas
VENOM - IN NOMINE SATANAS
From the Single BLOOD LUST
Copyright 1982 - NEAT RECORDS
Version 1.0 - (APR. - 2001)

Transcribed by: ВJШRN

For Questions, Comments, Newest Version, or Corrections contact
[email protected]

Check Out Death Warp, With More Transcriptions On It:

.. - palm mute / - slide up to
- slide down to ~ - vibrato
h - hammer on b - bend
p - pull off Suffixes for bend
ph - pinch harmonic
f - full bend h - half bend
* - see comment r - release t - tap bend
X - percussion mute ~ - vibrato bend
@ - slight palm mute () - ghost note, sustained note

Tune Gtr to C#

Riff A
|----------------------------------------------------------------|
|----------------------------------------------------------------|
|----------------------------------------------------------------|
|------------7/9----9----107-7/9----9--3p2p0---------2----------|
|-------2----5/7----7----8-5-5/7----7--------3p2p0---2----------|
|--12/--0-00-----00---00----------00----------------3p0----------|

Riff B
|--------------------------------------------------------------|
|--------------------------------------------------------------|
|--------------------------------------------------------------|
|--2--(2)--3p2p0--------2---------------222-222-222------------|
|--2--(2)-------3p2p0---2---last-time---222-222-222------------|
|--0--(0)-------------3p0-------------0-000-000-000------------|

Riff C
|-----------------------------------------------------------------|
|-----------------------------------------------------------------|
|-----------------------------------------------------------------|
|--2--8--7--6----6----6----6----2--8--7--5----5----5----5---------|
|--2--8--7--6-66-6-66-6-66-6----2--8--7--5-55-5-55-5-55-5---------|
|--0--6--5--4-44-4-44-4-44-4----0--6--5--3-33-3-33-3-33-3---------|

Riff D
|--------------------------------------------|
|--------------------------------------------|
|-----------------------9--7----10-----------|
|--2---------------2----9--7----10-----------|
|--2---------------2----7--5----8------------|
|--0---3~----4b----0-------------------------|

Log In to leave a comment

After registration we will return you to the same place
Comments
face-with-monocle
If you wait a bit, some comments may appear here...

Shhh...

Most Popular
You Might Like