Vandals logo

Idea For A Movie Vandals

  • 0
  • Share
  • Font Size
Vandals – Idea For A Movie
VANDaLS - IDEA FOR A MOVE
Taken from the TabbersTemple.com Tab archive!
Standard Tuning
*=palm mute

Intro
E------------------------------------------------------
B------------------------------------------------------
G---------------------------------6--------7--------9--
D------7--------2--------4--------6--------7--------9--
A------7--------2--------4---4-4--4---5-5--5---7-7--7--
E-5-5--5---0-0--0---2-2--2-----------------------------
* * * * * * * * * * * *
------------------
------------------
------------------
------7--------7--
------7--------7--
-5-5--5---5-5--5--
* * * *
E------------------------------------------------------
B-------15b14h15p14---15-14-15-17-15-14----------------
G-14-------------------------------------16-14---------
D----14----------------------------------------14------
A------------------------------------------------------
E-------------------------------------------------12---

E-------------------------------------
B-------------------15-14-------------
G-14----14--16--16b-------16b-16b-14--
D----14-------------------------------
A-------------------------------------
E-------------------------------------

Verse
E------------------------------------------------------
B------------------------------------------------------
G---------------------------------6--------7--------9--
D------7--------2--------4--------6--------7--------9--
A------7--------2--------4---4-4--4---5-5--5---7-7--7--
E-5-5--5---0-0--0---2-2--2-----------------------------
* * * * * * * * * * * *
------------------
------------------
------------------
------7--------7--
------7--------7--
-5-5--5---5-5--5--
* * * *
Pre-Chorus
E------------------------------------------------
B------------------------------------------------
G-77777777-99999999-----------77777777-99999999--
D-77777777-99999999-444-2-3-4-77777777-99999999--
A-55555555-77777777-444-2-3-4-55555555-77777777--
E-------------------222-0-1-2--------------------

Chorus
E--------------------------------------
B--------------------------------------
G-------------------66666666-77777777--
D-77777777-55555555-66666666-77777777--
A-77777777-55555555-44444444-55555555--
E-55555555-33333333--------------------

Bridge
E------------------------------------
B------------------------------------
G-7777777777777777-------------------
D-7777777777777777-9999999999999999--
A-5555555555555555-9999999999999999--
E------------------7777777777777777--

Well thats it. pretty easy song. Listen to the song for the order.

UG channels: guitar tabs • bass tabs

Log In to leave a comment

After registration we will return you to the same place
Comments
face-with-monocle
If you wait a bit, some comments may appear here...

Shhh...