Loading...
Vandals logo

Happy Birthday Vandals

  • 0
  • Share
  • Transposing
    0
  • Font Size
THE VANDALS-HAPPY BIRTHDAY

RIFF 1
E----------------
B----------------
G---7------------
D---7-5-7777-----
A---5-5-7777-----
E-----3-5555-----

RIFF 2
E---------------------------------
B---------------------------------
G---77---77---77---999-121212-----
D---77---77---77---999-121212-----
A---55---55---55---777-101010-----
E---------------------------------

RIFF 3
E--------------------------------------
B--------------------------------------
G--------------------------------------
D--------------------555555-777777-----
A-----2-5-9-5-2-12/1-555555-777777-----
E---3----------------333333-555555-----
Pick all the way

RIFF 4
E--------------------
B--------------------
G---77---------------
D---77-55-77-5-7-----
A---55-55-77-5-7-----
E------33-55-3-5-----

RIFF 5
E---15-----------------------------------------------
B------15-12----------14141414-----------------------
G------------14-12-14-11111111-----------------------
D------------------------------55-7-9-7-5-777777-----
A------------------------------55-7-9-7-5-777777-----
E------------------------------33-5-7-5-3-555555-----

Log In to leave a comment

After registration we will return you to the same place
Comments
face-with-monocle
If you wait a bit, some comments may appear here...

Shhh...