Vandals logo

Anarchy Burger Vandals

  • 0
  • Share
  • Font Size
Vandals – Anarchy Burger
Song: Anarchy Burger
Band: Vandals
Album: Peace Thru Vandalism
Tabbed by: ALBINO
[email protected]
Http://www.geocities.com/SunsetStrip/Stage/5367/tab.html

> = strum

Intro and chorus:
G:------------------------------------
D:-5--5-5-3-5--5-5-3------------------
A:-------------------5--5-5-3-5--5-5--
E:------------------------------------

Verse:
G:---------
D:---------
A:---------
E:---5>----

Part near the end:
G:---------------------------------------------------------------
D:---------------------------------------------------------------
A:--5-5--5-5------------5-5--5-5------------7-7--5-5-------------
E:------------5-5--5-5------------5-5--5-5-----------5>--0>------

Thats it. The bassist might squeeze a few extra
Notes in once in a while- its hard to tell.
Corrections, questions, tab, and other stuff goes to [email protected]

Log In to leave a comment

After registration we will return you to the same place
Comments
face-with-monocle
If you wait a bit, some comments may appear here...

Shhh...