Used logo

Choke Me Used

  • 0
  • Share
  • Transposing
    0
  • Font Size
Used โ€“ Choke Me
-------------------------------------------------------------------------------
Choke Me - The Used
-------------------------------------------------------------------------------

Tabbed by: Scuba Steve
Email: [email protected]

Tuning: DADGBE โ€“ Dropped D

Intro: E Verse: E G C F
E|---------------------------------------------------------------------------|
B|---------------------------------------------------------------------------|
G|-------------------------------------------5-------------------------------|
D|------2-2โ€”-2-----------------------2---5---5---3---------------------------|
A|------2-2โ€”-2---(repeat)------------2---5---3---3----(you do the rhythm)----|
E|------2-2โ€”-2-----------------------2---5-------3---------------------------|
Chorus: E :last rep: F E D
E|---------------------------------------------------------------------------|
B|---------------------------------------------------------------------------|
G|---------------------------------------------------------------------------|
D|-----2-2--2-2---(add rhythm------------(1x only)---------------------------|
A|-----2-2--2-2-----& repeats)-----------------------------------------------|
E|-----2-2--2-2--------------------------(3)(2)(0)---------------------------|
Interlude:(clean) B Breakdown:
E|--------------------7--------7---------------------------------------------|
B|-----------------8------8-8------------------------------------------------|
G|--------------------------------9---------------------------(repeat)-------|
D|------------------------------------------------(repeat)-----3-2-0---------|
A|-------------------------------------------------------------3-2-0---------|
E|------------------------------------------------(3)(2)(0)----3-2-0---------|
2nd Interlude: E F
E|------------+9+-----(repeat)----------(repeat)-----------------------------|
B|------------+9+------------------------------------------------------------|
G|------------+9+------999999-------10-10โ€”-10-10-10--------------------------|
D|-----------------------------------X--X---X--X--X--------------------------|
A|-----------------------------------8--8---8--8--8--------------------------|
E|---------------------------------------------------------------------------|

This song is really easy; you figure out the rhythm and order, it's not that
Hard. The other tab for this song is way off. Because this song is in D, you
Can't play it acurately in standard tuning. Email me with questions.

| ( ) palm mute
| / slide up
| slide down
| h hammer-on
| p pull-off
| ~ vibrato
| + harmonic
| x Mute note

===============================================================================

Log In to leave a comment

After registration we will return you to the same place
Comments
face-with-monocle
If you wait a bit, some comments may appear here...

Shhh...