Loading...
Used logo

Buried Myself Alive Used

  • 0
  • Share
  • Transposing
    0
  • Font Size

Buried Myself Alive Tab by Used, www.Ultimate-Guitar.Com

The Used
Buried Myself Alive

Guitar

E||--------------------------------------------------|
B||--------------------------------------------------|
G||--------------------------------------------------|
D||--5--5--5--5--5--5--5--5--5--5--5--5--5--5--5--5--|
A||--5--5--5--5--5--5--5--5--5--5--5--5--5--5--5--5--|
D||--5--5--5--5--5--5--5--5--5--5--5--5--5--5--5--5--|

----------------------------------------------------------|
----------------------------------------------------------|
--------------------------11--11--11--11--11--11--11--11--|
--5--5--5--5--5--5--5--5--x---x---x---x---x---x---x---x---|
--5--5--5--5--5--5--5--5--9---9---9---9---9---9---9---9---|
--5--5--5--5--5--5--5--5----------------------------------|

--------------------------------------------------|
--------------------------------------------------|
--------------------------------------------------|
--2--2--2--2--2--2--2--2--2--2--2--2--2--2--2--2--|
--2--2--2--2--2--2--2--2--2--2--2--2--2--2--2--2--|
--2--2--2--2--2--2--2--2--2--2--2--2--2--2--2--2--|

--------------------------------------------------|
--------------------------------------------------|
--------------------------------------------------|
--2--2--2--2--2--2--2--2--2--2--2--2--2--2--2--2--|
--2--2--2--2--2--2--2--2--2--2--2--2--2--2--2--2--|
--2--2--2--2--2--2--2--2--2--2--2--2--2--2--2--2--|

--------------------------------------------------|
--------------------------------------------------|
--5--5--5--5--5--5--5--5--5--5--5--5--5--5--5--5--|
--5--5--5--5--5--5--5--5--5--5--5--5--5--5--5--5--|
--3--3--3--3--3--3--3--3--3--3--3--3--3--3--3--3--|
--------------------------------------------------|

--------------------------------------------------|
--------------------------------------------------|
--7--7--7--7--7--7--7--7--7--7--7--7--7--7--7--7--|
--7--7--7--7--7--7--7--7--7--7--7--7--7--7--7--7--|
--5--5--5--5--5--5--5--5--5--5--5--5--5--5--5--5--|
--------------------------------------------------|

|---------------------------------------------------|
|---------------------------------------------------|
|*--------------------------------------------------|
|*--5-----5-----5-----5-----5-----5-----5-----5-----|
|------5-----5-----5-----5-----5-----5-----5-----5--|
|---------------------------------------------------|

--------------------------------------------------|
--------------------------------------------------|
--------------------------------------------------|
--5-----5-----5-----5-----5-----5-----5-----5-----|
-----5-----5-----5-----5-----5-----5-----5-----5--|
--------------------------------------------------|

--------------------------------------------------|
--------------------------------------------------|
--------------------------------------------------|
--2-----2-----2-----2-----2-----2-----2-----2-----|
-----2-----2-----2-----2-----2-----2-----2-----2--|
--------------------------------------------------|

--------------------------------------------------|
--------------------------------------------------|
--------------------------------------------------|
--2-----2-----2-----2-----2-----2-----2-----2-----|
-----2-----2-----2-----2-----2-----2-----2-----2--|
--------------------------------------------------|

--------------------------------------------------|
--------------------------------------------------|
--5-----5-----5-----5-----5-----5-----5-----5-----|
-----5-----5-----5-----5-----5-----5-----5-----5--|
--------------------------------------------------|
--------------------------------------------------|

--------------------------------------------------|
--------------------------------------------------|
--------------------------------------------------|
--0-----0-----0-----0-----0-----0-----0-----0-----|
-----0-----0-----0-----0-----0-----0-----0-----0--|
--------------------------------------------------|

--------------------------------------------------|
--------------------------------------------------|
--------------------------------------------------|
--5-----5-----5-----5-----5-----5-----5-----5-----|
-----5-----5-----5-----5-----5-----5-----5-----5--|
--------------------------------------------------|

---------------------------------------------------||
---------------------------------------------------||
--------------------------------------------------*||
--5--5--5--5--5--5--5--5--5--5--5--5--5--5--5--5--*||
--5--5--5--5--5--5--5--5--5--5--5--5--5--5--5--5---||
---------------------------------------------------||

--------------------------------------------------|
--------------------------------------------------|
--------------------------------------------------|
--5--5--5--5--5--5--5--5--5--5--5--5--5--5--5--5--|
--5--5--5--5--5--5--5--5--5--5--5--5--5--5--5--5--|
--5--5--5--5--5--5--5--5--5--5--5--5--5--5--5--5--|

----------------------------------------------------------|
----------------------------------------------------------|
--------------------------11--11--11--11--11--11--11--11--|
--5--5--5--5--5--5--5--5--x---x---x---x---x---x---x---x---|
--5--5--5--5--5--5--5--5--9---9---9---9---9---9---9---9---|
--5--5--5--5--5--5--5--5----------------------------------|

--------------------------------------------------|
--------------------------------------------------|
--------------------------------------------------|
--2--2--2--2--2--2--2--2--2--2--2--2--2--2--2--2--|
--2--2--2--2--2--2--2--2--2--2--2--2--2--2--2--2--|
--2--2--2--2--2--2--2--2--2--2--2--2--2--2--2--2--|

--------------------------------------------------|
--------------------------------------------------|
--------------------------------------------------|
--2--2--2--2--2--2--2--2--2--2--2--2--2--2--2--2--|
--2--2--2--2--2--2--2--2--2--2--2--2--2--2--2--2--|
--2--2--2--2--2--2--2--2--2--2--2--2--2--2--2--2--|

--------------------------------------------------|
--------------------------------------------------|
--5--5--5--5--5--5--5--5--5--5--5--5--5--5--5--5--|
--5--5--5--5--5--5--5--5--5--5--5--5--5--5--5--5--|
--3--3--3--3--3--3--3--3--3--3--3--3--3--3--3--3--|
--------------------------------------------------|

--------------------------------------------------|
--------------------------------------------------|
--7--7--7--7--7--7--7--7--7--7--7--7--7--7--7--7--|
--7--7--7--7--7--7--7--7--7--7--7--7--7--7--7--7--|
--5--5--5--5--5--5--5--5--5--5--5--5--5--5--5--5--|
--------------------------------------------------|

--------------------------------------------------|
--------------------------------------------------|
--------------------------------------------------|
--5-----5-----5-----5-----5-----5-----5-----5-----|
-----5-----5-----5-----5-----5-----5-----5-----5--|
--------------------------------------------------|

--------------------------------------------------|
--------------------------------------------------|
--------------------------------------------------|
--5-----5-----5-----5-----5-----5-----5-----5-----|
-----5-----5-----5-----5-----5-----5-----5-----5--|
--------------------------------------------------|

--------------------------------------------------|
--------------------------------------------------|
--------------------------------------------------|
--2-----2-----2-----2-----2-----2-----2-----2-----|
-----2-----2-----2-----2-----2-----2-----2-----2--|
--------------------------------------------------|

--------------------------------------------------|
--------------------------------------------------|
--------------------------------------------------|
--2-----2-----2-----2-----2-----2-----2-----2-----|
-----2-----2-----2-----2-----2-----2-----2-----2--|
--------------------------------------------------|

--------------------------------------------------|
--------------------------------------------------|
--5-----5-----5-----5-----5-----5-----5-----5-----|
-----5-----5-----5-----5-----5-----5-----5-----5--|
--------------------------------------------------|
--------------------------------------------------|

--------------------------------------------------|
--------------------------------------------------|
--------------------------------------------------|
--0-----0-----0-----0-----0-----0-----0-----0-----|
-----0-----0-----0-----0-----0-----0-----0-----0--|
--------------------------------------------------|

--------------------------------------------------|
--------------------------------------------------|
--------------------------------------------------|
--5-----5-----5-----5-----5-----5-----5-----5-----|
-----5-----5-----5-----5-----5-----5-----5-----5--|
--------------------------------------------------|

--------------------------------------------------|
--------------------------------------------------|
--------------------------------------------------|
--5--5--5--5--5--5--5--5--5--5--5--5--5--5--5--5--|
--5--5--5--5--5--5--5--5--5--5--5--5--5--5--5--5--|
--------------------------------------------------|

--------------------------------------------------|
--------------------------------------------------|
--------------------------------------------------|
--5--5--5--5--5--5--5--5--5--5--5--5--5--5--5--5--|
--5--5--5--5--5--5--5--5--5--5--5--5--5--5--5--5--|
--5--5--5--5--5--5--5--5--5--5--5--5--5--5--5--5--|

----------------------------------------------------------|
----------------------------------------------------------|
--------------------------11--11--11--11--11--11--11--11--|
--5--5--5--5--5--5--5--5--x---x---x---x---x---x---x---x---|
--5--5--5--5--5--5--5--5--9---9---9---9---9---9---9---9---|
--5--5--5--5--5--5--5--5----------------------------------|

--------------------------------------------------|
--------------------------------------------------|
--------------------------------------------------|
--2--2--2--2--2--2--2--2--2--2--2--2--2--2--2--2--|
--2--2--2--2--2--2--2--2--2--2--2--2--2--2--2--2--|
--2--2--2--2--2--2--2--2--2--2--2--2--2--2--2--2--|

--------------------------------------------------|
--------------------------------------------------|
--------------------------------------------------|
--2--2--2--2--2--2--2--2--2--2--2--2--2--2--2--2--|
--2--2--2--2--2--2--2--2--2--2--2--2--2--2--2--2--|
--2--2--2--2--2--2--2--2--2--2--2--2--2--2--2--2--|

--------------------------------------------------|
--------------------------------------------------|
--5--5--5--5--5--5--5--5--5--5--5--5--5--5--5--5--|
--5--5--5--5--5--5--5--5--5--5--5--5--5--5--5--5--|
--3--3--3--3--3--3--3--3--3--3--3--3--3--3--3--3--|
--------------------------------------------------|

--------------------------------------------------||-------------------|
--------------------------------------------------||-------------------|
--7--7--7--7--7--7--7--7--7--7--7--7--7--7--7--7--||*------------------|
--7--7--7--7--7--7--7--7--7--7--7--7--7--7--7--7--||*--2----2--2--2----|
--5--5--5--5--5--5--5--5--5--5--5--5--5--5--5--5--||---2----2--2--2----|
--------------------------------------------------||---2----2--2--2----|

------------------|------------------|-------------------||------------------|
------------------|------------------|-------------------||------------------|
------------------|------------------|------------------*||------------------|
--0----0--0--0----|--5----5--5--5----|--5----5--5--5----*||--5----5--5--5----|
--0----0--0--0----|--3----3--3--3----|--3----3--3--3-----||--3----3--3--3----|
--0----0--0--0----|------------------|-------------------||------------------|

------------------|----------------------|----------------------|
------------------|----------------------|----------------------|
------------------|--12----12--12--12----|--12----12--12--12----|
--5----5--5--5----|--x-----x---x---x-----|--x-----x---x---x-----|
--3----3--3--3----|--10----10--10--10----|--10----10--10--10----|
------------------|----------------------|----------------------|

----------------------|----------------------||-----------------------|
----------------------|----------------------||-----------------------|
--12----12--12--12----|--12----12--12--12----||*--12----12--12--12----|
--x-----x---x---x-----|--x-----x---x---x-----||*--x-----x---x---x-----|
--10----10--10--10----|--10----10--10--10----||---10----10--10--10----|
----------------------|----------------------||-----------------------|

----------------------|----------------------|----------------------|
----------------------|----------------------|----------------------|
--12----12--12--12----|--12----12--12--12----|--14----14--14--14----|
--x-----x---x---x-----|--x-----x---x---x-----|--x-----x---x---x-----|
--10----10--10--10----|--10----10--10--10----|--12----12--12--12----|
----------------------|----------------------|----------------------|

----------------------|----------------------|------------------|
----------------------|----------------------|------------------|
--12----12--12--12----|--11----11--11--11----|--7----7--7--7----|
--x-----x---x---x-----|--x-----x---x---x-----|------------------|
--10----10--10--10----|--9-----9---9---9-----|--5----5--5--5----|
----------------------|----------------------|------------------|

2x
-------------------||----------------------|----------------------|
-------------------||----------------------|----------------------|
--7----7--7--7----*||--12----12--12--12----|--12----12--12--12----|
------------------*||--x-----x---x---x-----|--x-----x---x---x-----|
--5----5--5--5-----||--10----10--10--10----|--10----10--10--10----|
-------------------||----------------------|----------------------|

----------------------|----------------------|----------------------------|
----------------------|----------------------|----------------------------|
--12----12--12--12----|--12----12--12--12----|--12----12--12--12----12----|
--x-----x---x---x-----|--x-----x---x---x-----|--x-----x---x---x-----x-----|
--10----10--10--10----|--10----10--10--10----|--10----10--10--10----10----|
----------------------|----------------------|----------------------------|

----------------------------------|
----------------------------------|
--12--12--12--12--12--12--12--12--|
--x---x---x---x---x---x---x---x---|
--10--10--10--10--10--10--10--10--|
----------------------------------|

|---------------------------------------------------|
|---------------------------------------------------|
|*--------------------------------------------------|
|*--5--5--5--5--5--5--5--5--5--5--5--5--5--5--5--5--|
|---5--5--5--5--5--5--5--5--5--5--5--5--5--5--5--5--|
|---5--5--5--5--5--5--5--5--5--5--5--5--5--5--5--5--|

----------------------------------------------------------|
----------------------------------------------------------|
--------------------------11--11--11--11--11--11--11--11--|
--5--5--5--5--5--5--5--5--x---x---x---x---x---x---x---x---|
--5--5--5--5--5--5--5--5--9---9---9---9---9---9---9---9---|
--5--5--5--5--5--5--5--5----------------------------------|

--------------------------------------------------|
--------------------------------------------------|
--------------------------------------------------|
--2--2--2--2--2--2--2--2--2--2--2--2--2--2--2--2--|
--2--2--2--2--2--2--2--2--2--2--2--2--2--2--2--2--|
--2--2--2--2--2--2--2--2--2--2--2--2--2--2--2--2--|

--------------------------------------------------|
--------------------------------------------------|
--------------------------------------------------|
--2--2--2--2--2--2--2--2--2--2--2--2--2--2--2--2--|
--2--2--2--2--2--2--2--2--2--2--2--2--2--2--2--2--|
--2--2--2--2--2--2--2--2--2--2--2--2--2--2--2--2--|

--------------------------------------------------|
--------------------------------------------------|
--5--5--5--5--5--5--5--5--5--5--5--5--5--5--5--5--|
--5--5--5--5--5--5--5--5--5--5--5--5--5--5--5--5--|
--3--3--3--3--3--3--3--3--3--3--3--3--3--3--3--3--|
--------------------------------------------------|

---------------------------------------------------||
---------------------------------------------------||
--7--7--7--7--7--7--7--7--7--7--7--7--7--7--7--7--*||
--7--7--7--7--7--7--7--7--7--7--7--7--7--7--7--7--*||
--5--5--5--5--5--5--5--5--5--5--5--5--5--5--5--5---||
---------------------------------------------------||

---------------------------------------------------|
---------------------------------------------------|
*--------------------------------------------------|
*--5-----5-----5-----5-----5-----5-----5-----5-----|
------5-----5-----5-----5-----5-----5-----5-----5--|
---------------------------------------------------|

---------------------------------------------------||
---------------------------------------------------||
--------------------------------------------------*||
--5--5--5--5--5--5--5--5--5--5--5--5--5--5--5--5--*||
--5--5--5--5--5--5--5--5--5--5--5--5--5--5--5--5---||
--------------------------------------5--5--5--5---||

--------------------------------------------------|
--------------------------------------------------|
--------------------------------------------------|
--5-----5-----5-----5-----5-----5-----5-----5-----|
-----5-----5-----5-----5-----5-----5-----5-----5--|
--------------------------------------------------|

--------------------------------------------------||
--------------------------------------------------||
--------------------------------------------------||
--5-----5-----5-----5-----5-----5-----5-----5-----||
-----5-----5-----5-----5-----5-----5-----5-----5--||
--------------------------------------------------||

Log In to leave a comment

After registration we will return you to the same place
Comments
face-with-monocle
If you wait a bit, some comments may appear here...

Shhh...