Loading...
Ufo logo

Only You Can Rock Me Ufo

  • 0
  • Share
  • Transposing
    0
  • Font Size
U. F.О
Оnlу you can rock me.
Tabbed By scott benett

Intro/main riff

E--------------------------------------------------------------------------------|
B------------------------9--9--10-10-10-9----------------------------------------|
G------------------------9--9--9---9--9--9---------------------------------------|
D---9--9--11-9-11-9---9--9--9---9--9--9----9--9--9--9---7----9--9--11-9-11-9-----|
A---7--7--7--7--7--7--------------------------9--9--9--9---7----7--7--7--7--7--7-|
E---0--0--0--0--0--0--------------------------7--7--7--7---5----0--0--0--0--0--0-|

Verse 1 Main riff throughout

Who's taking time out, we'll take a shot
Now We're the boys we got nothin' to lose
I've had enough now, of stealin' stuff now
If you ain't with us then it's just bad news

РОWЕR СНОRDS
A D G C G
Оnlу you can rock me, rock me
A D G C G
Come on back now do it again
A D G C G
Оnlу you can rock me, rock me
D B
Kickin' out just like a hurricane

Chorus
E----------------------------------------|
B----------------------------------------|
G----------------------------------------|
D-6--6--7-6--4--2--4--2--1--1--2--4--|
A-----------------------------------------|
E-----------------------------------------|

Verse 2
Come on the street now, on every corner
Breakin' out and we're doing what we wanna
Just like a jewel, shines in the night
She burns so hot out under the street light

Оnlу you can rock me, rock me
Come on back now, do it again
Оnlу you can rock me, rock me
Kickin' out just like a hurricane

We are here and there's no end
To keep on callin' again
We are here and there's no end
Just keep callin' again

Guitar solo Chords- E A F#m B
E A F#m B
E A F#m B
E A F#m B C
F C D
GUITAR SОLО!
What a solo its almost perfect.

1|--------------------------------------------------------------------------------------------|
2|-----------------------------------------------------------------------------------13h15p13-|
3|-14--------14--15-------15--14---12--12--12--10--9--9--9--10--12----14----------------14----|
4|----------------------12--------------------------------------------------------------------|
5|-------15-----------------------------------------------------------------------------------|
6|--------------------------------------------------------------------------------------------|

1|------------------------------------------------------------------------------------------------|
2|-13h15-17-18-17h18p17h18-20-20b(22)-20~-22-20-18-20~--20-18-17-18~-18-17-15-13-20b-20-20b20b-20-|
3|------------------------------------------------------------------------------------------------|
4|------------------------------------------------------------------------------------------------|
5|------------------------------------------------------------------------------------------------|
6|------------------------------------------------------------------------------------------------|

1|18h20p18-17-18-20-----------------------------------------------------------------------------------|
2|----------------------17-18--17h18p17--15-17-18--20b(22)-20-20-18-17-15-----------------------------|
3|-------------------------------------------------------------------------------17-------------------|
4|-----------------------------------------------------------------------------------19-17------------|
5|------------------------------------------------------------------------------------------19-17-----|
6|-------------------------------------------------------------------------------------------------20~|

1|---------------------------------------------------------------------------------------|
2|-14--18-20-22-23-20-20h22-18-20-22-23-20-21br-21p19-20--18-20-22-23-22-20-18-16-13-14~-|
3|---------------------------------------------------------------------------------------|
4|---------------------------------------------------------------------------------------|
5|---------------------------------------------------------------------------------------|
6|---------------------------------------------------------------------------------------|

Verse 3
Who's taking time out, we'll take a shot now
We're the boys we got nothin' to lose
I've had enough now, of stealin' stuff now
If you ain't with us then it's just bad news

Оnlу you can rock me, rock me
Come on back now do it again
Оnlу you can rock me, rock me
Kickin' out just like a hurricane

We can't wait from day to day
'Cause we've got something to say
We are here and there's no end
We'll keep on callin' again
We can't wait from day to day
'Cause we've got something to say
We are here and there's no end
Bm C
We'll keep on callin' again

Ending - F C D E

ЕNJОУ!

Log In to leave a comment

After registration we will return you to the same place
Comments
face-with-monocle
If you wait a bit, some comments may appear here...

Shhh...