Tool logo

Pushit Tool

  • 2
  • Share
  • Transposing
    0
  • Font Size
Tool – Pushit
Band : Tool
Album: Salival
Track: 3
Song : Pushit (extended)

Part : Guitar
Tuning: drop D

Credit goes to this guy:

Tabbed: Nolan Venhola
Email : [email protected]
Visit : Tooltabs.net

Legend

Nh - natural harmonic
ph - pinch harmonic

Pm - palm mute
x - muted string

B - hammer on
p - pull off

- slide down
// - slide up

B - bend
~~ - vibrato

- natural harmonic
X/// - pick scrape (directions same as slide)

Tr - tremolo picking

--------------------------------------------------------------------------------

*Maynard's speach*

(clean with delay, and slight vibrato)

*continues over Maynard talking*

0:23 0:45
E--------------------------------------------------------
B--------------------------------------------------------
G-----------------------2-------2/3-3------3/5-5--5p0-5--
D--0-tr-------------------0-tr--------0-tr---------------
A--------------------------------------------------------
D--------------------------------------------------------

E--------------------------------------------------------
B---------------------------------------------7----------
G-------3-0-3------3p2------2-tr---5/7-7--7h8---7-7h8-7--
D--0-tr-------0-tr-----0-tr-0-tr-------------------------
A--------------------------------------------------------
D--------------------------------------------------------

E---------------------------------------------------------
B-----------7---------------------------------------------
G-------7h8---8-7------7/5--5/7------2/3--5-3p0-3-2--2p0--
D--0-tr-----------0-tr----------0-tr----------------------
A---------------------------------------------------------
D---------------------------------------------------------

1:21 x7
E---------------------------|------------------------------
B---------------------------|------------------------------
G----2-----2-----2-----2----|----2-----2-----2--2---2------
D--0-----3-----5---------5--|--0-----3-----5---5-5----5----
A-------------------3-------|---------------------3-----3--
D---------------------------|------------------------------

E------------------------------------
B------------------------------------
G----2--2----2--2------2--2---2------
D--0---0---3---3-3---5---5-5----5---- x9
A---------------------------3-----3--
D------------------------------------

E------------------------------------
B------------------------------------
G------------------------------------
D--7--7-7--3--3-3-/-5--5-5--0--0-0-- x4
A--7--7-7--3--3-3-/-5--5-5--0--0-0--
D--7--7-7--3--3-3-/-5--5-5--0--0-0--

*hold last chord*

(faint)
E------------------------------
B------------------------------
G------------------------------
D--12-0--12-0---12-0--12-------
A------------------------------
D------------------------10-9--

E------------------------------------
B------------------------------------
G----2--2----2--2------2--2---2------
D--0---0---3---3-3---5---5-5----5---- x8
A---------------------------3-----3--
D------------------------------------

E-------------------------------------
B--10-10-10--6--6-6---8--8-8--3--3-3--
G--9--9--9---5--5-5---7--7-7--2--2-2--
D--7--7--7--3--3-3-/-5--5-5--0--0-0-- x6
A--7--7--7--3--3-3-/-5--5-5--0--0-0--
D--7--7--7--3--3-3-/-5--5-5--0--0-0--

*hold last chord*
x5
E--------------------------|--------------------------------------
B--------------------------|--------------------------------------
G----2-----2-----2---------|----2---2----2--2----2---2------------
D--0-----------------------|--0---0-------------------------------
A-------------------3---3--|-----------------------------3---3----
D--------3-----5-------5---|-----------3---3-3--5---5-5-----5--5--

E-------------------------------------
B--10-10-10--6--6-6---8--8-8--3--3-3--
G--9--9--9---5--5-5---7--7-7--2--2-2--
D--7--7--7--3--3-3-/-5--5-5--0--0-0-- x5
A--7--7--7--3--3-3-/-5--5-5--0--0-0--
D--7--7--7--3--3-3-/-5--5-5--0--0-0--

*regular bass part kicks in*

E-------------------------------------
B--10-10-10--6--6-6---8--8-8--3--3-3--
G--9--9--9---5--5-5---7--7-7--2--2-2--
D--7--7--7--3--3-3-/-5--5-5--0--0-0-- x4
A--7--7--7--3--3-3-/-5--5-5--0--0-0--
D--7--7--7--3--3-3-/-5--5-5--0--0-0--

E----------------------------
B----------------------------
G----------------------------
D--10p9-7-------5-----7------ x6
A-------0-0-0-0---0-0---0-0--
D----------------------------

(flange)

x4
E-----------------------------|---------
B-----------------------------|---------
G-----------------------------|---------
D--12--10--12--10--9h10-9h10--|--0------
A--12--10--12--10--9h10-9h10--|--0------
D--12--10--12--10--9h10-9h10--|--0------

*rest for part of Danney's drum solo*

7:50
E--------------------------------------------------------------------
B--------------------------------------------------------------------
G--------------------------------------------------------------------
D--------10p9---------5h7-5h7-----------------5h7-5h7
A---------------------------0-0-0-0---------0-0-0-0-0-0-0-0----------
D--------------------------------------------------------------------
pm - - - - | pm - - - - - -|

E---------------------------------------
B---------------------------------------
G---------------------------------------
D------7-----7-----7-----7-----7-----7-- x4
A--0-0---0-0---0-0---0-0---0-0---0-0----
D---------------------------------------
pm - - - - - - - - - - - - - - - - -|

x4
E------------
B------------
G------------
D--7---------
A--0---------
D------------

*rest for two bars*

x3
E----------------------------------------|-------------------
B----------------------------------------|-------------------
G----------------------------------------|-------------------
D--7-----5-----7----7h9-9h10-10p9-9p(7)--|--7-----5-----7----
A----------------------------------------|-------------------
D----------------------------------------|-------------------

*rest*

E------------------------------------------
B-----15-----------------------------------
G--14------(rest)--------------------------
D------------------------------------------
A-----------------x//--x//--x//--x//--x//--
D------------------------------------------

E-------------------------------------------------------------------
B-----15------------------------------------------------------------
G--14-----15-14--14-12--12-11--11-9------------12---14-12-----------
D------------------------------------14-12--12------------12-11-----
A---------------------------------------------------------------12--
D-------------------------------------------------------------------

E---------------------------
B---------------------------
G---------------------------
D--------11---14---17---19--
A--12--0----0----0----0-----
D---------------------------

*rest*

E----------
B-----15---
G--14------
D----------
A----------
D----------

(flange)

E---------------------------------------------------
B---------------------------------------------------
G-----14----14-----14----14-----14----14-----14-12--
D--12----12-----15----15-----17----17-----10--------
A---------------------------------------------------
D---------------------------------------------------

E---------------------------------------------------
B---------------------------------------------------
G-----14----14-----14----14-----14----14------------
D--12----12-----15----15-----17----17-----10-----
A---------------------------------------------------
D---------------------------------------------------

(distortion)

E----------------------------------------------------------------
B----------------------------10-10------8-----8-----8--8--8-8----
G--2-2-2-2-2-2-2-2-----------9--9-------7-----7-----7--7--7-7----
D--2-2-2-2-2-2-2-2---7-------7--7--0-5--5--5--5--5--5--5--5-5-5--
A--0-0-0-0-0-0-0-0---7-------7--7--0-5--5--5--5--5--5--5--5-5-5--
D--------------------7-------7--7--0-5--5--5--5--5--5--5--5-5-5--
pm - - - - - - |

E------------------------------------------------
B------------------------------------------------
G------------------------------------------------
D--(tremolo picking throughout)------------------
A------------------------------------------------
D--7--------------///-12--//-14-//-15-//-17b-----

E----------------------------------------------------------5------
B--10--7-------7---10--7-------7------8-----8--8-8-8-8-8-8---8----
G--9---7---6---7---9---7---6---7------7-----7--7-7-7-7-7-7-----7--
D--7---7---7---7---7---7---7---7---5--5--5--5---------------------
A----0---0-7-0---0---0---0-7-0---0-5--5--5--5---------------------
D----------------------------------5--5--5--5---------------------

E--------------------------------------------------
B--------------------------------------------------
G--2-(tremolo pick)-2h3p2-2-(t.p.)-2h3p2-2-(t.p.)--
D--------------------------------------------------
A--------------------------------------------------
D--------------------------------------------------

(tremolo picking) x :)
E---------------------------|------------
B---------------------------|-(go nuts)--
G--2h5p2-2-2h5p2-2-2h5p2-2--|--2h3-2h5---
D---------------------------|------------
A---------------------------|------------
D---------------------------|------------

E---------------------------------------------------
B---------------------------------------------------
G---------------------------------------------------
D--/14-14-14--15-17-17-17-----17-17-17-x-12-12-12-- x2
A--/12-12-12--15-15-15-15--15-17-17-17-x-12-12-12--
D--/12-12-12--15-15-15-15--15-17-17-17-x-12-12-12--

E------------------
B------------------
G------------------
D--7--7--7--5-5h7-- x3
A------------------
D------------------

E----------------------------------------------------
B----------------------------------------------------
G----------------9-9--12-12--7-7-6-6-6-9-6-----------
D--7b--------7-7---------------------------7---------
A------------------------------------------0---------
D----------------------------------------------------
ph

E------------------------------------------------
B------------------------------------------------
G------------9-9--12-12--7-7-6-6-6-9-6-----------
D--5-5--7-7----------------------------7--------- x2
A--------------------------------------0---------
D------------------------------------------------

E------------------------------------
B------------------------------------
G------------------------------------
D--5-5--7-7----7---5-----------------
A------------7---7---5-5-5-4-7-4-0---
D------------------------------------

(flange)

E-----------------------
B-----------------------
G--2-2-2-2-2-2-2-2-2-2--
D--2-2-2-2-2-2-2-2-2-2--
A--0-0-0-0-0-0-0-0-0-0--
D-----------------------
pm - - - - - |

E----------------------------------
B-------------------3--------------
G-------------------2--------------
D--7-7--2-2--5-5--0-0-------------- x3
A--7-7--2-2--5-5--0-0--------------
D--7-7--2-2--5-5--0-0--------------

*rest*

E-----------------------------------------------
B-------------------3---------------------------
G-------------------2---------------------------
D--7-7--2-2--5-5--0-0---0-00-0--0-00-0--0-00-0--
A--7-7--2-2--5-5--0-0---0-00-0--0-00-0--0-00-0--
D--7-7--2-2--5-5--0-0---0-00-0--0-00-0--0-00-0--
pm - - - - - - - - - |

E--------------------------
B--------------------------
G--------------------------
D--7-7--2-2-/-10-10b-------
A--7-7--2-2-/-10-10b-------
D--7-7--2-2-/-10-10b-------

4x
E---------------
B---------------
G---------------
D--3-000-3-000--
A--3-000-3-000--
D--3-000-3-000--

E----------------------------------
B----------------------------------
G----------------------------------
D--7~--7-7-7--7-7-7--7-7-7--7~-7~-- x8
A--0~--0-0-0--0-0-0--0-0-0--0~-0~--
D----------------------------------

x3
E--------------------------------|---------------------------
B--------------------------------|---------------------------
G--------------------------------|---------------------------
D--7-7-7-10-1010-10--8-----------|--7--7--7-7-7-7-7-7-7-7-7--
A--0-0-0-10-1010-10--8-8h10-10~--|--0--0--0-0-0-0-0-0-0-0-0--
D--------10-1010-10--8-----------|---------------------------

x2
E---------------|---------
B---------------|---------
G---------------|---------
D--7--0--10--0--|--8------
A--7--0--10--0--|--8------
D--7--0--10--0--|--8------

--------------------------------------------------------------------------------

Log In to leave a comment

After registration we will return you to the same place
Comments
face-with-monocle
If you wait a bit, some comments may appear here...

Shhh...

Most Popular
You Might Like