Tool logo

Hush Tool

  • 0
  • Share
  • Transposing
    0
  • Font Size
Tool – Hush
Band : Tool
Album: Opiate
Track: 2
Song : Hush

Part : Guitar
Tuning: drop D

Tabbed: Nolan Venhola
Email : [email protected]
Visit : Tooltabs.net

Legend

Nh - natural harmonic
ph - pinch harmonic

Pm - palm mute
x - muted string

B - hammer on
p - pull off

- slide down
// - slide up

B - bend
~~ - vibrato

- natural harmonic
X/// - pick scrape (directions same as slide)

--------------------------------------------------------------------------------(distortion)

*bass for two bars*

E----------------------
B--------14-14-x-12----
G--------13-13-x-11----
D--12----11-11-x-9----- x2
A--12----11-11---------
D--12------------------

x3
E-----------------------------|--------------------------
B-----------------------------|--------------------------
G-----------------------------|--------------------------
D--7h9-xx-9--xx-2h3p2-0-0-12--|--7h9-xx-9--xx-333-2-2-0--
A--7h9-xx-9--xx-2h3p2-0-0-12--|--7h9-xx-9--xx-333-2-2-0--
D--7h9-xx-9--xx-2h3p2-0-0-12--|--7h9-xx-9--xx-333-2-2-0--

x4 x4
E-----------------------------|-----------------------------
B-----------------------------|-----------------------------
G-----------------------------|-----------------------------
D--9------------2h3p2-0-0-12--|--7h9-xx-9--xx-2h3p2-0-0-12--
A--9------------2h3p2-0-0-12--|--7h9-xx-9--xx-2h3p2-0-0-12--
D--9------------2h3p2-0-0-12--|--7h9-xx-9--xx-2h3p2-0-0-12--
pm - - - - - - - - - - - -| pm - - - - - - - - - - - -|

E-------------------------------------
B--12-12-12-12-12--12-10-10-10101010--
G--11-11-11-11-11--11-9--9--9-9-9-9---
D--9--9--9--9--9---9--7--7--7-7-7-7--- x4
A--9--9--9--9--9---9--7--7--7-7-7-7---
D--9--9--9--9--9---9--7--7--7-7-7-7---

x3
E-----------------------------|--------------------------
B-----------------------------|--------------------------
G-----------------------------|--------------------------
D--7h9-xx-9--xx-2h3p2-0-0-12--|--7h9-xx-9--xx-333-2-2-0--
A--7h9-xx-9--xx-2h3p2-0-0-12--|--7h9-xx-9--xx-333-2-2-0--
D--7h9-xx-9--xx-2h3p2-0-0-12--|--7h9-xx-9--xx-333-2-2-0--

x4
E-----------------------------
B-----------------------------
G-----------------------------
D--9------------2h3p2-0-0-12--
A--9------------2h3p2-0-0-12--
D--9------------2h3p2-0-0-12--
pm - - - - - - - - - - - -|

x2
E-----------------------------
B-----------------------------
G-----------------------------
D--9------------2h3p2-0-0-12--
A--9------------2h3p2-0-0-12--
D--9------------2h3p2-0-0-12--

E----------------------------------------------
B--12------------------------------------------
G--11------------------------------------------
D--9------------2h3p2-0-0-7--9----7h9-7--------
A--9------------2h3p2-0-0---------------9p7----
D--9------------2h3p2-0-0-------------------9--

E-------------------------------------
B--12-12-12-12-12--12-10-10-10101010--
G--11-11-11-11-11--11-9--9--9-9-9-9---
D--9--9--9--9--9---9--7--7--7-7-7-7--- x4
A--9--9--9--9--9---9--7--7--7-7-7-7---
D--9--9--9--9--9---9--7--7--7-7-7-7---

E------------------
B------------------
G------------------
D--9----7-----2-3-- x4
A--9----7-----2-3--
D--9----7-----2-3--

E----------------------------------------
B----------------------------------------
G----------------------------------------
D--3-2-2--3-2-2--3-2-2--3-2-2--10-10-10-- x4
A--3-2-2--3-2-2--3-2-2--3-2-2--10-10-10--
D--3-2-2--3-2-2--3-2-2--3-2-2--10-10-10--

E-----------------------------------------------------------
B----------------12--12-12-----------------10/12-12--12-10--
G----------------11--11-11-----------------9-/11-11--11-9---
D--7h9-xx-9--xx--9---9--9----7h9-xx-9--xx--7-/9--9---9--7---
A--7h9-xx-9--xx--------------7h9-xx-9--xx---------------7---
D--7h9-xx-9--xx--------------7h9-xx-9--xx---------------7---

E-----------------------------------------------------------
B----------------12--12-12-----------------15-15-15-14------
G----------------11--11-11-----------------14-14-14-13------
D--7h9-xx-9--xx--9---9--9----7h9-xx-9--xx--12-12-12-12------
A--7h9-xx-9--xx--------------7h9-xx-9--xx-------------------
D--7h9-xx-9--xx--------------7h9-xx-9--xx-------------------

x3
E-----------------------------|--------------------------
B-----------------------------|--------------------------
G-----------------------------|--------------------------
D--7h9-xx-9--xx-2h3p2-0-0-12--|--7h9-xx-9--xx-333-2-2-0--
A--7h9-xx-9--xx-2h3p2-0-0-12--|--7h9-xx-9--xx-333-2-2-0--
D--7h9-xx-9--xx-2h3p2-0-0-12--|--7h9-xx-9--xx-333-2-2-0--

E------------------
B------------------
G------------------
D--999999-9x------- x6
A--999999-9x-------
D--999999-9x-------
pm - - -|

Log In to leave a comment

After registration we will return you to the same place
Comments
face-with-monocle
If you wait a bit, some comments may appear here...

Shhh...

Most Popular
You Might Like