Toby Keith logo

High Maintenance Woman Toby Keith

  • 0
  • Share
  • Transposing
    0
  • Font Size
Toby Keith – High Maintenance Woman
Artist: Toby Keith
Song: High Maintenance Woman

Drop D tuning

Intro -
E|--|----------------------------------------------------|
B|--|----------------------------------------------------|
G|--|----------------------------------------------------| x2
D|--|-----------0--------------------------0-------------|
A|--|---------0---2-0---0-2-0-------------0---2-0-2b-0---|
D|12|/0-0-4h5----------5-------2b-0-0-4h5---------------0|

Verse 1:
D G D
I See Her Layin By The Pool Side Everyday
C D
She Aint Got A Lot On She Aint Got A Lot To Say
D G D
She Wouldn't Look My Way But Buddy What Do You Expect?
C D
Im Just A Fix It Up Boy At the Apartment Complex

Pre Chorus:
A
And She'll Go Out Dancing 'bout 7:15
G D
Climb Into The Back of A Long Limousine
G D
I Know Where She's Going, She's Going Down Town
C D
I'm Going Downtown Too And Take A Look Around

Chorus:
A
She's My Baby Doll She's My Beauty Queen
G D
Shes My Movie Star Best I Ever Seen
G A
I Aint Hooked It Up Yet Im Tryin Hard As I Can
G A
Its Just A High Maintenance Woman Dont Want No
D
Maintenance Man.

Replay Intro -
E|--|----------------------------------------------------|
B|--|----------------------------------------------------|
G|--|----------------------------------------------------| x2
D|--|-----------0--------------------------0-------------|
A|--|---------0---2-0---0-2-0-------------0---2-0-2b-0---|
D|12|/0-0-4h5----------5-------2b-0-0-4h5---------------0|

Verse 2:
D G D
I'm Just Sitting Round Waitin' On A Telephone call
C D
That The Water Pipe Exploded In The Living Room Wall
D G D
If Your Washer And Dryer Need A Repair You Now The
C
Handy Mans Waiting And He'll Be Right There

Fill 1-
E|--|-----------------------------------------------------|
B|--|-----------------------------------------------------|
G|--|------2----------------------------------------------|
D|--|0-0-4---4-2-----0------------------------------------|
A|--|------------0h3---3-0---5----------------------------|
D|--|----------------------4------------------------------|

Pre Chorus:
A
24 hours 7 days a week
G D
If Its Getting Clogged Up Or Maybe Starting To Leak
G D
Just Ring Up My Number Baby Give Me A Try
C D
You Know I Got All The Tools And I Can Satisfy

Fill 2-
E|--|------10---------------------------------------------|
B|--|-6-7-----10------------------------------------------|
G|--|------------10-7-5-9b-7------------------------------|
D|--|-----------------------------------------------------|
A|--|-----------------------------------------------------|
D|--|-----------------------------------------------------|

Chorus:
A
She's My Baby Doll She's My Beauty Queen
G D
Shes My Movie Star Best I Ever Seen
G A
I Aint Hooked It Up Yet Im Tryin Hard As I Can
G A
Its Just A High Maintenance Woman Dont Want No
D
Maintenance Man.

Solo- I Do not have

Chorus:
A
She's My Baby Doll She's My Beauty Queen
G D
Shes My Movie Star Best I Ever Seen
G A
I Aint Hooked It Up Yet Im Tryin Hard As I Can
G A
Its Just A High Maintenance Woman Dont Want No
D
Maintenance Man.

Outro -
E|--|----------------------------------------------------|
B|--|----------------------------------------------------|
G|--|----------------------------------------------------| x2
D|--|-----------0--------------------------0-------------|
A|--|---------0---2-0---0-2-0-------------0---2-0-2b-0---|
D|12|/0-0-4h5----------5-------2b-0-0-4h5---------------0|

Log In to leave a comment

After registration we will return you to the same place
Comments
face-with-monocle
If you wait a bit, some comments may appear here...

Shhh...