• 0
  • Share
  • Font Size
    15
Timberlake Justin – Seсorita
Tabbed by: LilSkeeto aka Brey :)
Email: lilskeeto055@aol.com or lildrusync@aol.com
(if ya wanna get it to me sooner)

Tuning: Eh... I never change my toonink. It's regular... cause I'm lazy.

E|--7---7-5-3---1-1-0------------------|
B|-------------------------------------|
G|-------------------------------------|
D|-------------------------------------|
A|-------------------------------------|
E|-------------------------------------|

OR

E|--7---7-5-3--------------------------|
B|--------------6-6-5------------------|
G|-------------------------------------|
D|-------------------------------------|
A|-------------------------------------|
E|-------------------------------------|

OR

E|--7---7-5----------------------------|
B|----------8---6-6-5------------------|
G|-------------------------------------|
D|-------------------------------------|
A|-------------------------------------|
E|-------------------------------------|

The last one is the easiest :) but the others sounda little different, maybe
Cause my guitar's not PERFECTLY tuned... but i assure you that this is correct.

Listen to the song for pauses and hitting the first note twice.

Then there's the bridge (there's only one way I know to play this since my neck
Ends on the 12th fret, which makes it hard to get to the 13-18 frets unless i
Stretch)

E|-8-10-12---12-10-8----8-10-12-12-12-12-12-10-8--|
B|------------------------------------------------|
G|------------------------------------------------|
D|------------------------------------------------|
A|------------------------------------------------|
E|------------------------------------------------|

E|-7-8-10-10-10-10-10-8-7----7-8-10---10-10-------|
B|------------------------------------------------|
G|------------------------------------------------|
D|------------------------------------------------|
A|------------------------------------------------|
E|------------------------------------------------|

Listen to the song to get the timing right.

See? Easy huh? I should do ALL of Timberlake's songs :) This is my second tab and
It's tight. I rule.

I dunno if there's any tabbable parts in the bridge though. It's only his voice
And some percussion, that's all I hear.

Please contact me if this is wrong because I think I might have a problem hearing
Tones, but I doubt that this is wrong. I am 99.5% sure this is correct.

I'mma go do som'more Justin songs...

Log In to leave a comment

After registration we will return you to the same place
Comments
face-with-monocle
If you wait a bit, some comments may appear here...

Shhh...